Song name
# A B C D E F G H I J K L M N O P Q R S T U V W X Y Z

Empire Of The Sun - Walking On A Dream tab

Empire of the Sun - Walking On A Dream, Tabbed by A.K_ASS
Standard Tuning

e----2-----0----5-----4-|
b----3-----2----2-----0-|
g-----------------------|  {Intro}
d-----------------------|
a-----------------------|
e-----------------------|

e------------------------------------------------------|
b-----------14----14-14-14------14-14-14------14-14-14-|
g-------------14--14-14-14------14-14-14------13-13-13-| {Chorus / Verse}
d-----11/12-------14-14-14------14-14-14------14-14-14-|
a------------------------------------------------------|
e------------------------------------------------------|

e----------------------------|
b----------------------------|
g----------------------------|
d----------------------------| {Bass}
a-------------9-9--9-9-/-7-7-|
e----9/10-10-----------------|
Tap to rate this tab
# A B C D E F G H I J K L M N O P Q R S T U V W X Y Z