Song name
# A B C D E F G H I J K L M N O P Q R S T U V W X Y Z

Empire Of The Sun - Standing On The Shore tab

into:
--2--2--2--2--2--2--2-----|
--3--2--3--2--3--2--3-----|
--4--2--4--2--4--2--4-----|    x4
--4--2--4--2--4--2--4-----|
--2--2--2--2--2--2--2-----|
--------------------------|




guitar 1:
--2--2--2--2--2--2--2-|
--3--2--3--2--3--2--3-|
--4--2--4--2--4--2--4-|
--4--2--4--2--4--2--4-|
--2--2--2--2--2--2--2-|
----------------------|


guitar 2:
---------------------|
---------------------|
--------------9--7---|
----------9----------|
-2---/9--------------|
---------------------|

--------------9------|
-----7---10------12--|
-9-------------------|
---------------------|
---------------------|
---------------------|

----------------12/9-|
-7---10---12---------|
---------------------|
---------------------|
---------------------|
---------------------|

-9/5-----------------|
------12/7---7/3-----|
-------------------4-|
---------------------|
---------------------|
---------------------|
Tap to rate this tab
# A B C D E F G H I J K L M N O P Q R S T U V W X Y Z