Song name
# A B C D E F G H I J K L M N O P Q R S T U V W X Y Z

Empire Of The Sun - We Are The People tab

A class song - simple but sounds really good played on the guitar! 
I would have written the chords down for this instead of 
tabbing it but I don't think a few of them are chords! 
So just play it in the order shown below and with as many strums 
as you feel like - enjoy :D

E--------------|-------------|--------------|-------------|
B--------------|-------------|--0-----------|-------------|
G--0-----------|-------------|--0-----------|--0----------|
D--0-----------|-------------|--2-----------|--0----------|
A--2-----------|--0----------|--3-----------|--2----------|
E--2-----------|--2----------|--0-----------|--2----------|

E--0-----------|
B--3-----------|
G--2-----------|
D--------------|
A--------------|
E--------------|
Tap to rate this tab
 
# A B C D E F G H I J K L M N O P Q R S T U V W X Y Z