Empire Of The Sun - Walking On A Dream tab

Walking on a dream, thanks for the help T-THE-C |

Capo on 8

Tuning:Capo on 8 (tab relative to capo)

e|---0----0----0----3--------------------------------------------------|
B|---1----1----1----3--------------------------------------------------|
G|---2----0----2----4--------------------------------------------------|
D|---3----2----2----5--------------------------------------------------|
A|--------3---------3--------------------------------------------------|
E|------------------3--------------------------------------------------|

Just get the right rhythm, listen to the song. Play it throughout the song it's the main verse.

e|----0--------0--------0----------------------------------------|
B|----1--------1--------0----------------------------------------|
G|----2--------0--------0----------------------------------------|
D|----3-X8-----2--------2----------------------------------------|
A|-------------3-X3-----2----------------------------------------|
E|----------------------0-X5-------------------------------------|

^^^^We are always running for the thrill of it, thrill of it
    Always Pushing up the Hill, searching for the thrill of it
Tap to rate this tab
 
# A B C D E F G H I J K L M N O P Q R S T U V W X Y Z