Song name
# A B C D E F G H I J K L M N O P Q R S T U V W X Y Z

Empire Of The Sun - Walking On A Dream tab



-------------------------------------------------------------------------------
			     Walking On A Dream - Empire Of The Sun
-------------------------------------------------------------------------------
Tabbed by: Alex
Email: hekmyster@hotmail.co.uk

Tuning: EADGBe
                Capo On 4th Fret

Pretty simple song to play & learn. Playing it like this is probably the simplest & most 
rewarding way to play it.
Sorry but a couple of the chords are a little tricky. This may not be the actuall 
strumming pattern but does fit well.
Hope you enjoy :)

Intro:
0:15 - 0:30
e|----(8)-(8)---(8)-(8)-(8)---(8)-(8)-(8)---(8)-(8)-(8)---(8)----------------|
B|-----9---9-----9---9---9-----9---9---9-----9---8---8-----8-----------------|
G|-----8---8-----8---8---8-----8---8---8-----8---8---8-----8-----------------|
D|----10--10----10--10--10----10--10--10----10---8---8-----8-----------------|
A|---------------------------------------------------------------------------|
E|---------------------------------------------------------------------------|
Just keep repeating this section.
This section may also be repeated later in the song.

Verse & Chorus:
0:30 - 1:31, 1:46 - 2:16 & 2:31 - END

e|---(8)-(8)---(8)-(8)-(8)---(8)-(8)-(8)---(8)-(8)-(8)---(8)-----------------|
B|----9---9-----9---9---9-----9---9---9-----9---8---8-----8------------------|
G|----8---8-----8---8---8-----8---8---8-----8---8---8-----8------------------|
D|---10--10----10--10--10----10--10--10----10---8---8-----8------------------|
A|----4---4-----4---4---4-----4---8---8-----8---6---6-----6------------------|
E|---------------------------------------------------------------------------|
Now just repeat this section for the rest of the song & you will need to switch back to the
Intro section for the interludes where the chorus section stops.

Guitar 2:

e|----8-----8----------------------------------------------------------------|
B|----9-----8----------------------------------------------------------------|
G|---------------------------------------------------------------------------|
D|---------------------------------------------------------------------------|
A|---------------------------------------------------------------------------|
E|---------------------------------------------------------------------------|
Just two palm muted parts which repeat for the whole song.
Not necessary but if you wish, listen to find out the strumming pattern.




************************************
|( )  Optional Notes
| /   slide up
| \   slide down
| h   hammer-on
| p   pull-off
| ~   vibrato
| +   harmonic
| x   Mute note
| b   Bend
| pb  Pre-bend
| br  Bend release
| pbr Pre-bend release
| brb Bend release bend

************************************
Tap to rate this tab
 
# A B C D E F G H I J K L M N O P Q R S T U V W X Y Z