Song name
# A B C D E F G H I J K L M N O P Q R S T U V W X Y Z

Empire Of The Sun - Walking On A Dream tab

This version is for someone performing with an acoustic guitar 

Tuning:Capo on 4 

Verse
e|---0----0----0----0-------------------|
B|---5----5----5----0-------------------|
G|---4----4----4----4-------------------|
D|---6----6----6----4-------------------|
A|---0----0----0----2-------------------|
E|---X----X----X----X-------------------|

Chorus
e|---0----0----0----0---------------------|
B|---5----0----0----0---------------------|
G|---4----4----4----4---------------------|
D|---6----6----6----4---------------------|
A|---0----7----7----2---------------------|
E|---X----0----0----X---------------------|
Tap to rate this tab
 
# A B C D E F G H I J K L M N O P Q R S T U V W X Y Z