Song name
# A B C D E F G H I J K L M N O P Q R S T U V W X Y Z

Empty Trash - Garden Of Growing Hearts tab

Empty Trash- Garden of Growing Hearts

Intro:
e|-----------------------------------------------------|2x
B|-----------------------------------------------------|
G|-----------------------------------------------------|
D|--------------9-9-9-9-9-9---5-5-5-5-5-5-5-5-5-5-5-5--|
A|-7-7-7-7-7-7--7-7---7-7-----3-3---3-3---3-3---3-3----|
E|-5-5---5-5-------------------------------------------|

e|--------------------------------------------------------------------|
B|--------------------------------------------------------------------|
G|--------------------------------------------------------------------|
D|------------------9-9-9-9-9-9-9-9---5-5-5-5-5-5-5-5--4-4-5--7-7-7-7-|
A|-7-7-7-7-7-7-7-7--7-7-7-7-7-7-7-7---3-3-3-3-3-3-3-3--2-2-3--5-5-5-5-|
E|-5-5-5-5-5-5-5-5----------------------------------------------------|

Verse:

e|--------------------------------------------------------------------|
B|--------------------------------------------------------------------|
G|--------------------------------------------------------------------|
D|----------------------9-9-9-9--9--9-9-9-9---5-5-5-5--5--5-5-5-5--5--|
A|-7-7-7-7--7--7-7-7-7--7-7-7-7--7--7-7-7-7---3-3-3-3--3--3-3-3-3--3--|
E|-5-5-5-5--5--5-5-5-5------------------------------------------------|

--------------| 5x
--------------|
--------------|
-7-7-7--------|
-5-5-5--------|
--------------|

Refrain
e|--------------------------------------------------------------------|
B|--------------------------------------------------------------------|
G|--------------------------------------------------------------------|
D|--9-9-9-9-9-9-9-9--5-5-5-5-5-5-5-5----------------------------------|
A|--7-7-7-7-7-7-7-7--3-3-3-3-3-3-3-3-7-7-7-7-7-7-7-7-7-7-7-7-7-7------|
E|-----------------------------------5-5-5-5-5-5-5-5-5-5-5-5-5-5------|

e|--------------------------------------------------------------------|
B|--------------------------------------------------------------------|
G|--------------------------------------------------------------------|
D|------------------9-9-9-9-9-9-9-9---5-5-5-5-5-5-5-5--4-4-5--7-7-7-7-|
A|-7-7-7-7-7-7-7-7--7-7-7-7-7-7-7-7---3-3-3-3-3-3-3-3--2-2-3--5-5-5-5-|
E|-5-5-5-5-5-5-5-5----------------------------------------------------|

Verse:

e|--------------------------------------------------------------------|
B|--------------------------------------------------------------------|
G|--------------------------------------------------------------------|
D|----------------------9-9-9-9--9--9-9-9-9---5-5-5-5--5--5-5-5-5--5--|
A|-7-7-7-7--7--7-7-7-7--7-7-7-7--7--7-7-7-7---3-3-3-3--3--3-3-3-3--3--|
E|-5-5-5-5--5--5-5-5-5------------------------------------------------|

--------------| 5x
--------------|
--------------|
-7-7-7--------|
-5-5-5--------|
--------------|

Refrain
e|--------------------------------------------------------------------|
B|--------------------------------------------------------------------|
G|--------------------------------------------------------------------|
D|--9-9-9-9-9-9-9-9--5-5-5-5-5-5-5-5----------------------------------|
A|--7-7-7-7-7-7-7-7--3-3-3-3-3-3-3-3-7-7-7-7-7-7-7-7-7-7-7-7-7-7------|
E|-----------------------------------5-5-5-5-5-5-5-5-5-5-5-5-5-5------|

e|-----------------------------------------------------|4x
B|-----------------------------------------------------|
G|-----------------------------------------------------|
D|--------------9-9-9-9-9-9---5-5-5-5-5-5-5-5-5-5-5-5--|
A|-7-7-7-7-7-7--7-7---7-7-----3-3---3-3---3-3---3-3----|
E|-5-5---5-5-------------------------------------------|

Sorry, but i don't have the solo.
During the solo, you have to repeat the refrain.

Tap to rate this tab
 
# A B C D E F G H I J K L M N O P Q R S T U V W X Y Z