Song name
# A B C D E F G H I J K L M N O P Q R S T U V W X Y Z

Empty Trash - Tell My Story tab

Empty Trash - Tell My Story
Standard Tuning

intro
E |------3---2----5-5-|
B |---3---------------|
G |-------------------|
D |-----2-0-0-0-/4-4--|
A |--2-2--------------|
E |-------------------|


E |------3---2----5-5-|-------|
B |---3---------------|-------|
G |-------------------|-------|
D |-----2-0-0-0-/4-4--|-4-----|
A |--2-2--------------|--0-2--|
E |-------------------|-------|

I figured it out so far, seems to match exaktly but I didn't bother to compleete it. any 
Reply to me in English or German! ic3manonline@hotmail.com
Tap to rate this tab
# A B C D E F G H I J K L M N O P Q R S T U V W X Y Z