Song name
# A B C D E F G H I J K L M N O P Q R S T U V W X Y Z

Empty Trash - Tell My Story tab

Empty Trash - Tell My Story
Standard Tuning

Intro:
E |--------------------------------|
B |---3------8-----7-----10-----10-|
G |--------------------------------|      x2
D |--------------------------------|
A |--2-2-2/7---5-5---7/9----7/9----|
E |--------------------------------|

Vers:
E |--------------------------------|
B |---3------8-----7-----10-----10-|
G |--------------------------------|      x4
D |--------------------------------|
A |--2-2-2/7---5-5---7/9----7/9----|
E |--------------------------------|

Refrain:
E |-----------------------------------------------------------------|
B |-------1-------1-------3-------3-------3-------3-------2-------2-|
G |-----0-------0-------2-------2-------3-------3-------2-------2---|     
D |---2-------2-------0-------0-------0-------0-------2-------2-----|
A |-3-------3-------2-------2-------1-------1-------0-------0-------|
E |-----------------------------------------------------------------|

Intro:
E |--------------------------------|
B |---3------8-----7-----10-----10-|
G |--------------------------------|      x2
D |--------------------------------|
A |--2-2-2/7---5-5---7/9----7/9----|
E |--------------------------------|

Vers:
E |--------------------------------|
B |---3------8-----7-----10-----10-|
G |--------------------------------|      x4
D |--------------------------------|
A |--2-2-2/7---5-5---7/9----7/9----|
E |--------------------------------|

Refrain:
E|--------------------------------------------------------------------------------|
B|-------1-------1-------3-------3-------3-------3-------2-------2-------2------2-|
G|-----0-------0-------2-------2-------3-------3-------2-------2-------2------2---|     
D|---2-------2-------0-------0-------0-------0-------2-------2-------2------2-----|
A|-3-------3-------2-------2-------1-------1-------0-------0-------0-------0------|
E|--------------------------------------------------------------------------------|

Bridge:
E |-----------------------------------------------------------|
B |-----------------------------------------------------------|
G |-----0-----0-------0-----0-------0-----0-------0-----0-----|      
D |---4---4-4---4---4---4-4---4---4---4-4---4---4---4-4---4---|
A |-2-------------2-------------0-------------0---------------|
E |-----------------------------------------------------------|

E |-----------------------------------------------------------|
B |-----------------------------------------------------------|
G |-----0-----0-------0-----0-------0-----0-------0-----0-----|      
D |---4---4-4---4---4---4-4---4---4---4-4---4---4---4-4---4---|
A |-----------------------------------------------------------|
E |--2------------2-------------0-------------0---------------|

Whole bridge 3x


Intro:
E |--------------------------------|
B |---3------8-----7-----10-----10-|
G |--------------------------------|      x2
D |--------------------------------|
A |--2-2-2/7---5-5---7/9----7/9----|
E |--------------------------------|

Outro:
E |----------------------------------------------7--|
B |---3------8-----7-----10-----10-----10-----10----|
G |-------------------------------------------------|
D |-------------------------------------------------|
A |--2-2-2/7---5-5---7/9----7/9----7/9----7/9-------|
E |-------------------------------------------------|

Tap to rate this tab
 
# A B C D E F G H I J K L M N O P Q R S T U V W X Y Z