Song name
# A B C D E F G H I J K L M N O P Q R S T U V W X Y Z

Empty Trash - Romance tab

Intro:
e |-----------------------------------------------------|
b |-----------------------------------------------------|
g |-7-7-10-7-7-10-7-7-10-3-3-3-3-3-3-3-3-5-5-5-5-5-5-5-5|
d |-7-7-10-7-7-10-7-7-10-3-3-3-3-3-3-3-3-5-5-5-5-5-5-5-5| x3
a |-5-5-08-5-5-08-5-5-08-1-1-1-1-1-1-1-1-3-3-3-3-3-3-3-3|
E |-----------------------------------------------------|

  Verse:
e |-----------------------------------------------------|
b |-----------------------------------------------------|
g |-7-7-7-7-7-7-7-7-10-10-10-10-10-10-10-10-3-3-3-3-3-3-|
d |-7-7-7-7-7-7-7-7-10-10-10-10-10-10-10-10-3-3-3-3-3-3-|
a |-5-5-5-5-5-5-5-5-08-08-08-08-08-08-08-08-1-1-1-1-1-1-|
E |-----------------------------------------------------|

e  -------------------|
b  -------------------|
g  3-3-3-3-3-3-3-3-3-3|
d  3-3-3-3-3-3-3-3-3-3| x7
a  1-1-1-1-1-1-1-1-1-1|
E  -------------------|


e |------|
b |------|
g |------|
d |-5-7-8|
a |-5-7-8|
E |-3-5-6|
Tap to rate this tab
# A B C D E F G H I J K L M N O P Q R S T U V W X Y Z