Song name
# A B C D E F G H I J K L M N O P Q R S T U V W X Y Z

Empyrium - Abendrot tab

Help us improve GuitareTab! Take a short survey!
Transcribed by:DV(Dmitriy_B.Goode@tut.by)

Tune Gtr to E

Empyrium
Abendrot


...from silence
  Gtr I
G|-7-7-6-6-7-9-7-6-7-6----6-|
D|----------------------9---|
 |
 |Gtr II
G|-----4-------4-------2-------2---|
D|---4---4---4---4---2---2---2---2-|
A|-2-------2-------0-------0-------|

Riff A
  Gtr I
G|-7-7-6-6------------/6--7-7-6-6-7-9-7-6-7-6----6-|
D|---------9-9--7-9--7-7-----------------------9---|
 |
 |Gtr II
G|-------------------------------------4-------4-------2-------2---|
D|-----5-------5-------5-------5-----4---4---4---4---2---2---2---2-|
A|---5---5---5---5---5---5---5---5-2-------2-------0-------0-------|
E|-3-------3-------3-------3---------------------------------------|

Repeat Riff A total of 3 times
Riff B
  Gtr I & Gtr II
G|-----4-------4-------2-------2-------1-------1h2-------4---2-------|
D|---2---2---2---2---2---2---2---2---2---2---2-----2---2---2---2---2-|
A|-0-------0-------0-------0-------0-------0---------0-----------0---|

Repeat Riff B total of 1 time
Again repeat Riff A total of 4 times & Riff B total of 2 times
then
Riff C
  Gtr I
B|-----3-2---------------2-------|
G|-----------6-7-------2-----7-6-|
D|---2-------7-9-----2-------9-7-|
A|-0---------------0-------------|
 |                               |
 |Gtr II                         |
B|-----3-2---------------2-------|
G|---------------------2---------|
D|---2---------------2-----------|
A|-0---------------0-------------|

Repeat Riff C total of one time
and in the end

G|-----2-------2------------------------------------
D|---2---2---2---2-..........Gtr I & Gtr II fade...-
A|-0-------0----------------------------------------
Related for Abendrot tab