Song name
# A B C D E F G H I J K L M N O P Q R S T U V W X Y Z

Emscherkurve77 - Hau Mal Ab tab

"Hau Mal Ab" Emscherkurve 77
Featuring Duane Peters from the US Bombs
From "Lern Ma Deutsch!"

Verse
e|-----------------------------|
B|-----------------------------|
G|-----5--7--------------------|
D|--7--5--7--9-----------------|
A|--7--3--5--9-----------------|
E|--5--------7-----------------|

Fill After Verse One
e|-----------------------------|
B|--15-13-12-13-17b------------|
G|-----------------------------|
D|-----------------------------|
A|-----------------------------|
E|-----------------------------|

Chorus
e|-----------------------------|
B|-----------------------------|
G|-----5--7--------------------|
D|--7--5--7--------------------|
A|--7--3--5--------------------|
E|--5--------------------------|

Bridge
e|-----------------------------|
B|-----------------------------|
G|-----------------------------|
D|---------3333333--77777777---|
A|-5555555-3333333--77777777---|
E|-5555555---------------------|
 \________palm_muted___________|

http://www.emscherkurve77.de/
Tap to rate this tab
# A B C D E F G H I J K L M N O P Q R S T U V W X Y Z