Song name
# A B C D E F G H I J K L M N O P Q R S T U V W X Y Z

En Espiritu Y En Verdad - Tenemos Libertad tab

Title: Tenemos Libertad
Artist: En Espíritu Y En Verdad
Album: Tu Reino Aquí
Copyright: 2011
Tabber: Miguel Ángel García
Instructions: Usar pastilla del puente con distorsión ligera, amplificación estilo
británico y delay digital a un tiempo de corchea con puntillo, mezcla de ~50% y
retroalimentación de ~35%. // Use the bridge pickup with a slight distortion, 
British-voiced amp and a digital delay set on dotted eighth notes with ~50% mix and ~35% feedback.
Tempo = 140
Electric Guitar

Legend
L - tied note
x - dead note
h - hammer on/pull off
b - bend
s - slide
~ - vibrato
g - ghost note
> - accentuated note
t - trill
M - palm mute
. - staccato
P - popping (bass)
S - slapping (bass)
+ - tapping
W - wide vibrato
< - fade in
w - whammy bar
= - tremolo picking
v - brush up
^ - brush down
V - pick stroke up
n - pick stroke down

     Intro
E |----------------------------|----------------------------|
B |--16-16-16-16-16-16-16-16---|--15-15-15-15-15-15-15-15---|
G |--13-13-13-13-13-13-13-13---|--13-13-13-13-13-13-13-13---|
D |----------------------------|----------------------------|
A |----------------------------|----------------------------|
E |----------------------------|----------------------------|


----------------------------|----------------------------|
--16-16-16-16-16-16-16-16---|--15-15-15-15-15-15-15-15---|
--13-13-13-13-13-13-13-13---|--13-13-13-13-13-13-13-13---|
----------------------------|----------------------------|
----------------------------|----------------------------|
----------------------------|----------------------------|

  Intro con bajo
----------------------------|----------------------------|
--16-16-16-16-16-16-16-16---|--15-15-15-15-15-15-15-15---|
----------------------------|----------------------------|
--13-13-13-13-13-13-13-13---|--13-13-13-13-13-13-13-13---|
----------------------------|----------------------------|
----------------------------|----------------------------|


----------------------------|----------------------------|
--16-16-16-16-16-16-16-16---|--15-15-15-15-15-15-15-15---|
----------------------------|----------------------------|
--13-13-13-13-13-13-13-13---|--13-13-13-13-13-13-13-13---|
----------------------------|----------------------------|
----------------------------|----------------------------|

  Intro con batería
--15-15-15-15-15-15-15-15---|--13-13-13-13-13-13-13-13---|
--16-16-16-16-16-16-16-16---|--15-15-15-15-15-15-15-15---|
----------------------------|----------------------------|
--13-13-13-13-13-13-13-13---|--12-12-12-12-12-12-12-12---|
----------------------------|----------------------------|
----------------------------|----------------------------|


--15-15-15-15-15-15-15-15---|--13-13-13-16-16-16-16-16---|
--16-16-16-16-16-16-16-16---|--15-15-15-15-15-15-15-15---|
----------------------------|----------------------------|
--13-13-13-13-13-13-13-13---|--12-12-12-12-12-12-12-12---|
----------------------------|----------------------------|
----------------------------|----------------------------|


--15-15-15-15-15-15-15-15---|--13-13-13-13-13-13-13-13---|
--16-16-16-16-16-16-16-16---|--15-15-15-15-15-15-15-15---|
----------------------------|----------------------------|
--13-13-13-13-13-13-13-13---|--12-12-12-12-12-12-12-12---|
----------------------------|----------------------------|
----------------------------|----------------------------|


--15-15-15-15-15-15-15-15---|--13-13-13-13-13-13-13-13---|
--16-16-16-16-16-16-16-16---|--15-15-15-15-15-15-15-15---|
----------------------------|----------------------------|
--13-13-13-13-13-13-13-13---|--12-12-12-12-12-12-12-12---|
----------------------------|----------------------------|
----------------------------|----------------------------|

  Estrofa
----------------------------|----------------------------|
--16-16-16-16-16-16-16-16---|--15-15-15-15-15-15-15-15---|
----------------------------|----------------------------|
--13-13-13-13-13-13-13-13---|--13-13-13-13-13-13-13-13---|
----------------------------|----------------------------|
----------------------------|----------------------------|


----------------------------|----------------------------|
--16-16-16-16-16-16-16-16---|--15-15-15-15-15-15-15-15---|
----------------------------|----------------------------|
--13-13-13-13-13-13-13-13---|--13-13-13-13-13-13-13-13---|
----------------------------|----------------------------|
----------------------------|----------------------------|


--15M------15M------15M-----|--15M------15M------15M-----|
--------16M------16M--------|--------16M------16M--------|
-----17M------17M------17M--|-----17M------17M------17M--|
----------------------------|----------------------------|
----------------------------|----------------------------|
----------------------------|----------------------------|


--15M------15M------15M-----|--15M------15M------15M-----|
--------16M------16M--------|--------16M------16M--------|
-----17M------17M------17M--|-----17M------17M------17M--|
----------------------------|----------------------------|
----------------------------|----------------------------|
----------------------------|----------------------------|

  Puente de estrofa
--15-15-15-15-15-15-15-15---|--13-13-13-13-13-13-13-13---|
--16-16-16-16-16-16-16-16---|--15-15-15-15-15-15-15-15---|
----------------------------|----------------------------|
--13-13-13-13-13-13-13-13---|--12-12-12-12-12-12-12-12---|
----------------------------|----------------------------|
----------------------------|----------------------------|


--15-15-15-15-15-15-15-15---|--13-13-13-13-13-13-13-13---|
--16-16-16-16-16-16-16-16---|--15-15-15-15-15-15-15-15---|
----------------------------|----------------------------|
--13-13-13-13-13-13-13-13---|--12-12-12-12-12-12-12-12---|
----------------------------|----------------------------|
----------------------------|----------------------------|

  Estrofa
----------------------------|----------------------------|
--16-16-16-16-16-16-16-16---|--15-15-15-15-15-15-15-15---|
----------------------------|----------------------------|
--13-13-13-13-13-13-13-13---|--13-13-13-13-13-13-13-13---|
----------------------------|----------------------------|
----------------------------|----------------------------|


----------------------------|----------------------------|
--16-16-16-16-16-16-16-16---|--15-15-15-15-15-15-15-15---|
----------------------------|----------------------------|
--13-13-13-13-13-13-13-13---|--13-13-13-13-13-13-13-13---|
----------------------------|----------------------------|
----------------------------|----------------------------|


--15M------15M------15M-----|--15M------15M------15M-----|
--------16M------16M--------|--------16M------16M--------|
-----17M------17M------17M--|-----17M------17M------17M--|
----------------------------|----------------------------|
----------------------------|----------------------------|
----------------------------|----------------------------|


--15M------15M------15M-----|--15M------15M------15M-----|
--------16M------16M--------|--------16M------16M--------|
-----17M------17M------17M--|-----17M------17M------17M--|
----------------------------|----------------------------|
----------------------------|----------------------------|
----------------------------|----------------------------|

  Puente de estrofa
--15-15-15-15-15-15-15-15---|--13-13-13-13-13-13-13-13---|
--16-16-16-16-16-16-16-16---|--15-15-15-15-15-15-15-15---|
----------------------------|----------------------------|
--13-13-13-13-13-13-13-13---|--12-12-12-12-12-12-12-12---|
----------------------------|----------------------------|
----------------------------|----------------------------|


--15-15-15-15-15-15-15-15---|--13-13-13-13-13-13-13-13---|
--16-16-16-16-16-16-16-16---|--15-15-15-15-15-15-15-15---|
----------------------------|----------------------------|
--13-13-13-13-13-13-13-13---|--12-12-12-12-12-12-12-12---|
----------------------------|----------------------------|
----------------------------|----------------------------|

  Preparación de coro
----------------------------|----------------------------|
----------------------------|----------------------------|
--10-10-10-10-10-10-10-10---|--10-10-10-10-10-12-12-12---|
----------------------------|----------------------------|
--8--8--8--8--8--8--8--8----|--8--8--8--8--8--10-10-10---|
----------------------------|----------------------------|


----------------------------|----------------------------|
----------------------------|----------------------------|
--5--5--5--5--5--5--5--5----|--5--5--5--5--5--7--7--7----|
----------------------------|----------------------------|
--3--3--3--3--3--3--3--3----|--3--3--3--3--3--5--5--5----|
----------------------------|----------------------------|


----------------------------|----------------------------|
----------------------------|----------------------------|
--8--8--8--8--8--8--8--8----|--8--8--8--8--8--12-12-12---|
----------------------------|----------------------------|
--6--6--6--6--6--6--6--6----|--6--6--6--6--6--10-10-10---|
----------------------------|----------------------------|


----------------------------|----------------------------|
----------------------------|----------------------------|
--3--3--3--3--3--3--3--3----|--3--3--3--3--3--3--3--3----|
----------------------------|----------------------------|
--1--1--1--1--1--1--1--1----|--1--1--1--1--1--1--1--1----|
----------------------------|----------------------------|

  Coro
----------------------------|----------------------------|
--13-13-13-13-13-13-13-13---|--13-13-13-13-13-13-13-13---|
--13-13-13-13-13-13-13-13---|--13-13-13-13-13-13-13-13---|
--13-13-13-13-13-13-13-13---|--13-13-13-13-13-13-13-13---|
--11-11-11-11-11-11-11-11---|--11-11-11-11-11-11-11-11---|
----------------------------|----------------------------|


----------------------------|----------------------------|
--16-16-16-16-16-16-16-16---|--15-15-15-15-15-15-15-15---|
--15-15-15-15-15-15-15-15---|--15-15-15-15-15-15-15-15---|
--13-13-13-13-13-13-13-13---|--15-15-15-15-15-15-15-15---|
--13-13-13-13-13-13-13-13---|--13-13-13-13-13-13-13-13---|
----------------------------|----------------------------|


----------------------------|----------------------------|
--13-13-13-13-13-13-13-13---|--13-13-13-13-13-13-13-13---|
--13-13-13-13-13-13-13-13---|--13-13-13-13-13-13-13-13---|
--13-13-13-13-13-13-13-13---|--13-13-13-13-13-13-13-13---|
--11-11-11-11-11-11-11-11---|--11-11-11-11-11-11-11-11---|
----------------------------|----------------------------|


----------------------------|----------------------------|
--16-16-16-16-16-16-16-16---|--15-15-15-15-15-15-15-15---|
--15-15-15-15-15-15-15-15---|--15-15-15-15-15-15-15-15---|
--13-13-13-13-13-13-13-13---|--15-15-15-15-15-15-15-15---|
--13-13-13-13-13-13-13-13---|--13-13-13-13-13-13-13-13---|
----------------------------|----------------------------|


----------------------------|----------------------------|
--13-13-13-13-13-13-13-13---|--13-13-13-13-13-13-13-13---|
--13-13-13-13-13-13-13-13---|--13-13-13-13-13-13-13-13---|
--13-13-13-13-13-13-13-13---|--13-13-13-13-13-13-13-13---|
--11-11-11-11-11-11-11-11---|--11-11-11-11-11-11-11-11---|
----------------------------|----------------------------|


----------------------------|----------------------------|
--16-16-16-16-16-16-16-16---|--15-15-15-15-15-15-15-15---|
--15-15-15-15-15-15-15-15---|--15-15-15-15-15-15-15-15---|
--13-13-13-13-13-13-13-13---|--15-15-15-15-15-15-15-15---|
--13-13-13-13-13-13-13-13---|--13-13-13-13-13-13-13-13---|
----------------------------|----------------------------|


----------------------------|----------------------------|
--13-13-13-13-13-13-13-13---|--13-13-13-13-13-13-13-13---|
--13-13-13-13-13-13-13-13---|--13-13-13-13-13-13-13-13---|
--13-13-13-13-13-13-13-13---|--13-13-13-13-13-13-13-13---|
--11-11-11-11-11-11-11-11---|--11-11-11-11-11-11-11-11---|
----------------------------|----------------------------|


----------------------------|----------------------------|
--16-16-16-16-16-16-16-16---|--15-15-15-15-15-15-15-15---|
--15-15-15-15-15-15-15-15---|--15-15-15-15-15-15-15-15---|
--13-13-13-13-13-13-13-13---|--15-15-15-15-15-15-15-15---|
--13-13-13-13-13-13-13-13---|--13-13-13-13-13-13-13-13---|
----------------------------|----------------------------|

  Puente de coro
--15-15-15-15-15-15-15-15---|--13-13-13-13-13-13-13-13---|
--16-16-16-16-16-16-16-16---|--15-15-15-15-15-15-15-15---|
----------------------------|----------------------------|
--13-13-13-13-13-13-13-13---|--12-12-12-12-12-12-12-12---|
----------------------------|----------------------------|
----------------------------|----------------------------|


--15-15-15-15-15-15-15-15---|--13-13-13-13-13-13-13-13---|
--16-16-16-16-16-16-16-16---|--15-15-15-15-15-15-15-15---|
----------------------------|----------------------------|
--13-13-13-13-13-13-13-13---|--12-12-12-12-12-12-12-12---|
----------------------------|----------------------------|
----------------------------|----------------------------|

  Estrofa
----------------------------|----------------------------|
--16-16-16-16-16-16-16-16---|--15-15-15-15-15-15-15-15---|
----------------------------|----------------------------|
--13-13-13-13-13-13-13-13---|--13-13-13-13-13-13-13-13---|
----------------------------|----------------------------|
----------------------------|----------------------------|


----------------------------|----------------------------|
--16-16-16-16-16-16-16-16---|--15-15-15-15-15-15-15-15---|
----------------------------|----------------------------|
--13-13-13-13-13-13-13-13---|--13-13-13-13-13-13-13-13---|
----------------------------|----------------------------|
----------------------------|----------------------------|


--15M------15M------15M-----|--15M------15M------15M-----|
--------16M------16M--------|--------16M------16M--------|
-----17M------17M------17M--|-----17M------17M------17M--|
----------------------------|----------------------------|
----------------------------|----------------------------|
----------------------------|----------------------------|


--15M------15M------15M-----|--15M------15M------15M-----|
--------16M------16M--------|--------16M------16M--------|
-----17M------17M------17M--|-----17M------17M------17M--|
----------------------------|----------------------------|
----------------------------|----------------------------|
----------------------------|----------------------------|

  Puente de estrofa
--15-15-15-15-15-15-15-15---|--13-13-13-13-13-13-13-13---|
--16-16-16-16-16-16-16-16---|--15-15-15-15-15-15-15-15---|
----------------------------|----------------------------|
--13-13-13-13-13-13-13-13---|--12-12-12-12-12-12-12-12---|
----------------------------|----------------------------|
----------------------------|----------------------------|


--15-15-15-15-15-15-15-15---|--13-13-13-13-13-13-13-13---|
--16-16-16-16-16-16-16-16---|--15-15-15-15-15-15-15-15---|
----------------------------|----------------------------|
--13-13-13-13-13-13-13-13---|--12-12-12-12-12-12-12-12---|
----------------------------|----------------------------|
----------------------------|----------------------------|

  Preparación de coro
----------------------------|----------------------------|
----------------------------|----------------------------|
--10-10-10-10-10-10-10-10---|--10-10-10-10-10-12-12-12---|
----------------------------|----------------------------|
--8--8--8--8--8--8--8--8----|--8--8--8--8--8--10-10-10---|
----------------------------|----------------------------|


----------------------------|----------------------------|
----------------------------|----------------------------|
--5--5--5--5--5--5--5--5----|--5--5--5--5--5--7--7--7----|
----------------------------|----------------------------|
--3--3--3--3--3--3--3--3----|--3--3--3--3--3--5--5--5----|
----------------------------|----------------------------|


----------------------------|----------------------------|
----------------------------|----------------------------|
--8--8--8--8--8--8--8--8----|--8--8--8--8--8--12-12-12---|
----------------------------|----------------------------|
--6--6--6--6--6--6--6--6----|--6--6--6--6--6--10-10-10---|
----------------------------|----------------------------|


----------------------------|----------------------------|
----------------------------|----------------------------|
--3--3--3--3--3--3--3--3----|--3--3--3--3--3--3--3--3----|
----------------------------|----------------------------|
--1--1--1--1--1--1--1--1----|--1--1--1--1--1--1--1--1----|
----------------------------|----------------------------|

  Coro
----------------------------|----------------------------|
--13-13-13-13-13-13-13-13---|--13-13-13-13-13-13-13-13---|
--13-13-13-13-13-13-13-13---|--13-13-13-13-13-13-13-13---|
--13-13-13-13-13-13-13-13---|--13-13-13-13-13-13-13-13---|
--11-11-11-11-11-11-11-11---|--11-11-11-11-11-11-11-11---|
----------------------------|----------------------------|


----------------------------|----------------------------|
--16-16-16-16-16-16-16-16---|--15-15-15-15-15-15-15-15---|
--15-15-15-15-15-15-15-15---|--15-15-15-15-15-15-15-15---|
--13-13-13-13-13-13-13-13---|--15-15-15-15-15-15-15-15---|
--13-13-13-13-13-13-13-13---|--13-13-13-13-13-13-13-13---|
----------------------------|----------------------------|


----------------------------|----------------------------|
--13-13-13-13-13-13-13-13---|--13-13-13-13-13-13-13-13---|
--13-13-13-13-13-13-13-13---|--13-13-13-13-13-13-13-13---|
--13-13-13-13-13-13-13-13---|--13-13-13-13-13-13-13-13---|
--11-11-11-11-11-11-11-11---|--11-11-11-11-11-11-11-11---|
----------------------------|----------------------------|


----------------------------|----------------------------|
--16-16-16-16-16-16-16-16---|--15-15-15-15-15-15-15-15---|
--15-15-15-15-15-15-15-15---|--15-15-15-15-15-15-15-15---|
--13-13-13-13-13-13-13-13---|--15-15-15-15-15-15-15-15---|
--13-13-13-13-13-13-13-13---|--13-13-13-13-13-13-13-13---|
----------------------------|----------------------------|


----------------------------|----------------------------|
--13-13-13-13-13-13-13-13---|--13-13-13-13-13-13-13-13---|
--13-13-13-13-13-13-13-13---|--13-13-13-13-13-13-13-13---|
--13-13-13-13-13-13-13-13---|--13-13-13-13-13-13-13-13---|
--11-11-11-11-11-11-11-11---|--11-11-11-11-11-11-11-11---|
----------------------------|----------------------------|


----------------------------|----------------------------|
--16-16-16-16-16-16-16-16---|--15-15-15-15-15-15-15-15---|
--15-15-15-15-15-15-15-15---|--15-15-15-15-15-15-15-15---|
--13-13-13-13-13-13-13-13---|--15-15-15-15-15-15-15-15---|
--13-13-13-13-13-13-13-13---|--13-13-13-13-13-13-13-13---|
----------------------------|----------------------------|


----------------------------|----------------------------|
--13-13-13-13-13-13-13-13---|--13-13-13-13-13-13-13-13---|
--13-13-13-13-13-13-13-13---|--13-13-13-13-13-13-13-13---|
--13-13-13-13-13-13-13-13---|--13-13-13-13-13-13-13-13---|
--11-11-11-11-11-11-11-11---|--11-11-11-11-11-11-11-11---|
----------------------------|----------------------------|


----------------------------|----------------------------|
--16-16-16-16-16-16-16-16---|--15-15-15-15-15-15-15-15---|
--15-15-15-15-15-15-15-15---|--15-15-15-15-15-15-15-15---|
--13-13-13-13-13-13-13-13---|--15-15-15-15-15-15-15-15---|
--13-13-13-13-13-13-13-13---|--13-13-13-13-13-13-13-13---|
----------------------------|----------------------------|

  Puente
--15M------15M------15M-----|--15M------15M------15M-----|
--------16M------16M---16M--|--------16M------16M---16M--|
-----17M------17M-----------|-----17M------17M-----------|
----------------------------|----------------------------|
----------------------------|----------------------------|
----------------------------|----------------------------|


--15M------15M------15M-----|----------------------------|
-----16M18M---16M18M---16M--|--18M15M16M18M15M16M18M16M--|
----------------------------|----------------------------|
----------------------------|----------------------------|
----------------------------|----------------------------|
----------------------------|----------------------------|


--15M------15M------15M-----|--15M------15M------15M-----|
--------16M------16M---16M--|--------16M------16M---16M--|
-----17M------17M-----------|-----17M------17M-----------|
----------------------------|----------------------------|
----------------------------|----------------------------|
----------------------------|----------------------------|


--15M------15M------15M-----|----------------------------|
-----16M18M---16M18M---16M--|--18M15M16M18M15M16M18M16M--|
----------------------------|----------------------------|
----------------------------|----------------------------|
----------------------------|----------------------------|
----------------------------|----------------------------|


--15M------15M------15M-----|--15M------15M------15M-----|
--------16M------16M---16M--|--------16M------16M---16M--|
-----17M------17M-----------|-----17M------17M-----------|
----------------------------|----------------------------|
----------------------------|----------------------------|
----------------------------|----------------------------|


--15M------15M------15M-----|----------------------------|
-----16M18M---16M18M---16M--|--18M15M16M18M15M16M18M16M--|
----------------------------|----------------------------|
----------------------------|----------------------------|
----------------------------|----------------------------|
----------------------------|----------------------------|


--15M------15M------15M-----|--15M------15M------15M-----|
--------16M------16M---16M--|--------16M------16M---16M--|
-----17M------17M-----------|-----17M------17M-----------|
----------------------------|----------------------------|
----------------------------|----------------------------|
----------------------------|----------------------------|


--15M------15M------15M-----|----------------------------|-------|--------|
-----16M18M---16M18M---16M--|--18M15M16M18M15M16M18M16M--|--16L--|--(16)--|
----------------------------|----------------------------|--13L--|--(13)--|
----------------------------|----------------------------|-------|--------|
----------------------------|----------------------------|-------|--------|
----------------------------|----------------------------|-------|--------|

  Coro
----------------------------|----------------------------|
--13-13-13-13-13-13-13-13---|--13-13-13-13-13-13-13-13---|
--13-13-13-13-13-13-13-13---|--13-13-13-13-13-13-13-13---|
--13-13-13-13-13-13-13-13---|--13-13-13-13-13-13-13-13---|
--11-11-11-11-11-11-11-11---|--11-11-11-11-11-11-11-11---|
----------------------------|----------------------------|


----------------------------|----------------------------|
--16-16-16-16-16-16-16-16---|--15-15-15-15-15-15-15-15---|
--15-15-15-15-15-15-15-15---|--15-15-15-15-15-15-15-15---|
--13-13-13-13-13-13-13-13---|--15-15-15-15-15-15-15-15---|
--13-13-13-13-13-13-13-13---|--13-13-13-13-13-13-13-13---|
----------------------------|----------------------------|


----------------------------|----------------------------|
--13-13-13-13-13-13-13-13---|--13-13-13-13-13-13-13-13---|
--13-13-13-13-13-13-13-13---|--13-13-13-13-13-13-13-13---|
--13-13-13-13-13-13-13-13---|--13-13-13-13-13-13-13-13---|
--11-11-11-11-11-11-11-11---|--11-11-11-11-11-11-11-11---|
----------------------------|----------------------------|


----------------------------|----------------------------|
--16-16-16-16-16-16-16-16---|--15-15-15-15-15-15-15-15---|
--15-15-15-15-15-15-15-15---|--15-15-15-15-15-15-15-15---|
--13-13-13-13-13-13-13-13---|--15-15-15-15-15-15-15-15---|
--13-13-13-13-13-13-13-13---|--13-13-13-13-13-13-13-13---|
----------------------------|----------------------------|


----------------------------|----------------------------|
--13-13-13-13-13-13-13-13---|--13-13-13-13-13-13-13-13---|
--13-13-13-13-13-13-13-13---|--13-13-13-13-13-13-13-13---|
--13-13-13-13-13-13-13-13---|--13-13-13-13-13-13-13-13---|
--11-11-11-11-11-11-11-11---|--11-11-11-11-11-11-11-11---|
----------------------------|----------------------------|


----------------------------|----------------------------|
--16-16-16-16-16-16-16-16---|--15-15-15-15-15-15-15-15---|
--15-15-15-15-15-15-15-15---|--15-15-15-15-15-15-15-15---|
--13-13-13-13-13-13-13-13---|--15-15-15-15-15-15-15-15---|
--13-13-13-13-13-13-13-13---|--13-13-13-13-13-13-13-13---|
----------------------------|----------------------------|


----------------------------|----------------------------|
--13-13-13-13-13-13-13-13---|--13-13-13-13-13-13-13-13---|
--13-13-13-13-13-13-13-13---|--13-13-13-13-13-13-13-13---|
--13-13-13-13-13-13-13-13---|--13-13-13-13-13-13-13-13---|
--11-11-11-11-11-11-11-11---|--11-11-11-11-11-11-11-11---|
----------------------------|----------------------------|

                                                            Final
----------------------------|----------------------------|--15---||
--16-16-16-16-16-16-16-16---|--15-15-15-15-15-15-15-15---|--16---||
--15-15-15-15-15-15-15-15---|--15-15-15-15-15-15-15-15---|--13---||
--13-13-13-13-13-13-13-13---|--15-15-15-15-15-15-15-15---|--13---||
--13-13-13-13-13-13-13-13---|--13-13-13-13-13-13-13-13---|-------||
----------------------------|----------------------------|-------||
Tap to rate this tab
# A B C D E F G H I J K L M N O P Q R S T U V W X Y Z