Song name
# A B C D E F G H I J K L M N O P Q R S T U V W X Y Z

Enanitos Verdes - La Muralla Verde tab

Intro:

e:------------------------2-----I-----------------------4/5/6--------I
B:-------4h5-4--4-------2---0---I-------4h5-4--4---------------------I
G:-------4---4--4---2h3---------I-------4---4--4---------------------I
D:------------------------------I-----------------------6/7/8--------I
A:--4--4--------2---------------I--4--4--------2---------------------I
E:------------------------------I------------------------------------I


e:------------------------------I------------------------------------I
B:-------4h5-4--4---------7-----I-------4h5-4--4---------------------I
G:-------4---4--4-------6-------I-------4---4--4---------------------I
D:--------------------5---------I------------------------------------I
A:--4--4--------2---6-----------I--4--4--------2---------------------I
E:------------------------------I------------------------------------I




2 Guitarras:

Guitarra 1: (Cuatro veces)

              C#m          F#7                C#m                F#7
e:-------------------------------I-------------------11---------------------I
B:------------11b12--11b12-11----I------------11b12------12r11p9h11---------I
G:-------9-----------------------I-------9--------------------------9----9--I
D:--9h11---11--------------------I--9h11---11-------------------------11----I
A:-------------------------------I------------------------------------------I
E:-------------------------------I------------------------------------------I



Guitarra 2: (Cuatro veces)

              C#m          F#7                C#m                F#7
e:-------------------------------I-------------------11---------------------I
B:-------------------------------I------------------------------------------I
G:-------9----11b13--11b13-11----I-------9----11b13------13r11p9h11-9----9--I
D:--9h11---11--------------------I--9h11---11-------------------------11----I
A:-------------------------------I------------------------------------------I
E:-------------------------------I------------------------------------------I




  C#m                   F#7
Estoy parado sobre la muralla que divide

C#m                  F#7
todo lo que fue y lo que será

  C#m                   F#7
estoy mirando como esas viejas ilusiones

  C#m                     F#7
pasando la muralla se hacen realidad



              D#m7     G#m
Pero como el amor de ayer

              D#m7     G#m
Pero como el amor de ayer

            D#m7 G#m      F#7
volvió a desaparecer, desaparecer




Guitarra 1: (Dos veces)

              C#m          F#7                C#m                F#7
e:-------------------------------I-------------------11---------------------I
B:------------11b12--11b12-11----I------------11b12------12r11p9h11---------I
G:-------9-----------------------I-------9--------------------------9----9--I
D:--9h11---11--------------------I--9h11---11-------------------------11----I
A:-------------------------------I------------------------------------------I
E:-------------------------------I------------------------------------------I



Guitarra 2: (Dos veces)

              C#m          F#7                C#m                F#7
e:-------------------------------I-------------------11---------------------I
B:-------------------------------I------------------------------------------I
G:-------9----11b13--11b13-11----I-------9----11b13------13r11p9h11-9----9--I
D:--9h11---11--------------------I--9h11---11-------------------------11----I
A:-------------------------------I------------------------------------------I
E:-------------------------------I------------------------------------------I



  C#m                   F#7
Estoy parado sobre la muralla que divide

C#m                   F#7
todo lo que amé de lo que amaré

  C#m                    F#7
estoy mirando como mis heridas se cerraron

  C#m                       F#7
y cómo se desangra un nuevo corazón


              D#m7     G#m
Pero como el amor de ayer

              D#m7     G#m
Pero como el amor de ayer

            D#m7 G#m      F#7
volvió a desaparecer, desaparecer




Solo:

C#m                    F#7                          C#m
e:---------------------------------------------------------------------------I
B:-5h7-p5----7-p5----7-7-p5----7-7-p5-----7-7-p5----7h8p7p5-7p5---5----------I
G:--------6-------6---------6----------6---------6--------------6------------I
D:---------------------------------------------------------------------------I
A:---------------------------------------------------------------------------I
E:---------------------------------------------------------------------------I

          F#7           C#m                      F#7
e:--------------------------------------------7-7-7--9-9-9--11-11-11--9-9-9--I
B:---------------------------0------0-4--7-7/--------------------------------I
G:-----------6-6-6-6-6--4--4---4--4------------------------------------------I
D:--6-6-5-4------------------------------------------------------------------I
A:---------------------------------------------------------------------------I
E:---------------------------------------------------------------------------I


       C#m                  F#7                        C#m
e:-----9p7--9p7----------------------------------------9-9-11-11-12-12-11-11-I
B:--9--9----9----9~~--97-5-7~~~----7-5--------------------------------------I
G:--------------------------------6-------6p4---4h6----6-6--8--8--9--9--8--8-I
D:--------------------------------------------6------------------------------I
A:---------------------------------------------------------------------------I
E:---------------------------------------------------------------------------I


        F#7               C#m                         F#7            C#m
e:--9-9-7-7-9-9-----------9-9-7-7-11-11-9-9-12-12-11-11-14-14-12-11--12-11-9-I
B:--------------9-9-7------------------------------------------------12-11-9-I
G:--6-6-4-4-6-6-----------6-6-4-4--8--8-6-6--9--9--8--8-11-11--9--8----------I
D:--------------6-6-4--------------------------------------------------------I
A:---------------------------------------------------------------------------I
E:---------------------------------------------------------------------------I

           F#7        C#m                     F#7
e:--11-9-7-7-9---------------------------------------------------------------I
B:--11-9-7-7-9-11-9-7-9/12-12-12--14-14-14----7p5---5-5----------------------I
G:-------------11-8-6-8/11-11-11--13-13-13--------6--------------------------I
D:--------------------------------------------------------5-5-4--------------I
A:--------------------------------------------------------------7------------I
E:---------------------------------------------------------------------------I





  C#m                   F#7
Estoy parado sobre la muralla que divide

C#m                   F#7
todo lo que fue de lo que será

  C#m                      F#7
estoy mirando como esa vieja sicodelia

  C#m                F#7
estoy fijándome como viene y va




              D#m7     G#m
Pero como el amor de ayer

              D#m7     G#m
Pero como el amor de ayer

            D#m7 G#m      F#7
volvió a desaparecer, desaparecer






Guitarra 1:

              Dm           G7                  Dm                G7
e:-------------------------------I-------------------12-----------------------I
B:------------12b13--12b13-12----I-------------12b13-----13r12p10h12----------I
G:-------9-----------------------I-------10--------------------------10----10-I
D:--9h11---11--------------------I-10h12----12--------------------------12----I
A:-------------------------------I--------------------------------------------I
E:-------------------------------I--------------------------------------------I

               Dm           G7                 Dm                G7
e:-------------------------------I-------------------12-----------------------I
B:-------------12b13--12b13-12---I-------------12b13-----13r12p10h12----------I
G:-------10----------------------I-------10--------------------------10----10-I
D:-10h12----12-------------------I-10h12----12--------------------------12----I
A:-------------------------------I--------------------------------------------I
E:-------------------------------I--------------------------------------------I

               Em            A7                E                  A7
e:-------------------------------I-------------------14-----------------------I
B:-------------14b15--14b15-14---I-------------14b15-----15r14p12h14----------I
G:-------10----------------------I-------12--------------------------12----12-I
D:-10h12----12-------------------I-12h14----14--------------------------14----I
A:-------------------------------I--------------------------------------------I
E:-------------------------------I--------------------------------------------I

              Em           A7                  Em                 A7
e:-------------------------------I-------------------14-----------------------I
B:-------------14b15--14b15-14---I-------------14b15-----15r14p12h14----------I
G:-------12----------------------I-------12--------------------------12----12-I
D:-12h14----14-------------------I-12h14----14--------------------------14----I
A:-------------------------------I--------------------------------------------I
E:-------------------------------I--------------------------------------------I

 A7
e:--12-12-12-12-12-12-12-14-14-14-14-14--------------------------------------I
B:--14-14-14-14-14-14-14-14-14-14-14-14--------------------------------------I
G:--12-12-12-12-12-12-12-12-12-12-12-12--------------------------------------I
D:---------------------------------------------------------------------------I
A:---------------------------------------------------------------------------I
E:---------------------------------------------------------------------------I



Guitarra 2:

              Dm           G7                  Dm                G7
e:-------------------------------I-------------------12-----------------------I
B:-------------------------------I--------------------------------------------I
G:-------9----12b14--12b14-12----I-------10----12b14----14r12p10h12-10----10--I
D:--9h11---11--------------------I-10h12----12-------------------------12-----I
A:-------------------------------I--------------------------------------------I
E:-------------------------------I--------------------------------------------I

              Dm           G7                  Dm                G7
e:-------------------------------I-------------------12-----------------------I
B:-------------------------------I--------------------------------------------I
G:-------10----12b14--12b14-12---I-------10----12b14----14r12p10h12-10----10--I
D:-10h12----12-------------------I-10h12----12-------------------------12-----I
A:-------------------------------I--------------------------------------------I
E:-------------------------------I--------------------------------------------I


              Em           A7                  Em                A7
e:-------------------------------I-------------------14-----------------------I
B:-------------------------------I--------------------------------------------I
G:-------10----14b16--14b16-14---I-------12----14b16----16r14p12h14-12----12--I
D:-10h12----12-------------------I-12h14----14-------------------------14-----I
A:-------------------------------I--------------------------------------------I
E:-------------------------------I--------------------------------------------I

              Em           A7                  Em                 A7
e:-------------------------------I-------------------14-----------------------I
B:-------------------------------I--------------------------------------------I
G:-------12----14b16--14b16-14---I-------12----14b16----16r14p12h14-12----14--I
D:-12h14----14-------------------I-12h14----14-------------------------14-----I
A:-------------------------------I--------------------------------------------I
E:-------------------------------I--------------------------------------------I


A7
e:--12-12-12-12-12-12-12-14-14-14-14-14--------------------------------------I
B:--14-14-14-14-14-14-14-14-14-14-14-14--------------------------------------I
G:--12-12-12-12-12-12-12-12-12-12-12-12--------------------------------------I
D:---------------------------------------------------------------------------I
A:---------------------------------------------------------------------------I
E:---------------------------------------------------------------------------I
Tap to rate this tab
 
# A B C D E F G H I J K L M N O P Q R S T U V W X Y Z