Song name
# A B C D E F G H I J K L M N O P Q R S T U V W X Y Z

Enanitos Verdes - Tan Solo Un Instante tab

....ALan....


Intro:
   E            A       Am     E             B7        E
E--7---------------------------7-7------------------------|
B--9--7h9-7--5----5--5--5--5---9-9---9--10-9--7-7-9-7-----|
G---------------6--6--6--5--5--------9---9-9--8-8-9-8--9--|
D------------------------------------------------------9--|
A---------------------------------------------------------|
E---------------------------------------------------------|


E                                       F#m
Pensaba en los buenos momentos que tuve junto a ti
  B7                                  E
Y cada mañana despierto pero tu no estas aquí.
 E                                   F#m
Quisiera saber si al menos, tu me extrañas así
   B7                              E         E7
Parece que la nostalgia se ha apoderado de mí.

    A                Am                 E        C#m
Me dicen que sólo de ti yo recuerdo lo bueno, lo bueno
 F#m                 B7                 E
Pero francamente no creo que haya algo mal en ti.

 E                                       F#m
¿Porque cometemos errores? ¿Será que nos gusta sufrir?
   B7                                            E
¿Será que nos gusta arriesgarnos y en el riesgo ser feliz?
   E                                    F#m
Pudimos hacer tantas cosas hasta el mundo cambiar
  B7                                      E             E7
Pero no pudimos  siquiera cambiar nuestra historia personal

A                    Am                  E         C#m
Me dicen que sólo de ti yo recuerdo lo bueno, lo bueno
 F#m                  B7                E       E7
Pero francamente no creo que haya algo mal en ti.
A                       Am              E             C#m
Quisiera volver en el tiempo tan solo un instante y mirarte
F#m                     B7                      E
Quisiera volver en el tiempo, el tiempo en que fui feliz

Requinto:
   E                       F#m   B7                     E
E--0-2-4--0-2------------0-0-----2-4-5--0-2-------------0------|
B--------4-----------------------------4-----------------------|
G------------4--4-4-2-1-2-------------------4--4-4-2-1-1-------|
D--------------------------------------------------------------|
A--------------------------------------------------------------|
E--------------------------------------------------------------|

   E                       F#m   B7                          E
E--0-2-4-5-4-2-0-----5-4-2-0-2---5-4-2-0-2-4-2-----5-4-2-0---0-|
B----------------------------------------------------------4---|
G--------------------------------------------------------------|
D--------------------------------------------------------------|
A--------------------------------------------------------------|
E--------------------------------------------------------------|


A                    Am                  E        C#m
Me dicen que sólo de ti yo recuerdo lo bueno, lo bueno
 F#m                  B7                E        E7
Pero francamente no creo que haya algo mal en ti.
A                      Am                    E          C#m
Quisiera volver en el tiempo tan solo un instante y mirarte
  F#m                  B7                       A     E
Quisiera volver en el tiempo, el tiempo en que fui feliz

E--7-5---------------------------------------------------------|
B--9-7-9-------------------------------------------------------|
G------9-------------------------------------------------------|
D--------------------------------------------------------------|
A--------------------------------------------------------------|
E--------------------------------------------------------------|
Tap to rate this tab
# A B C D E F G H I J K L M N O P Q R S T U V W X Y Z