Song name
# A B C D E F G H I J K L M N O P Q R S T U V W X Y Z

Enanitos Verdes - Mary Sue tab

Mary Sue
Los Enanitos Verdes

Intro: x2
e|---------------------------------------------|
B|---------------------------------------------|
G|---------------------------------------------|
D|-------2-0-------------------------2-0-------|
A|-----0-----4-2-0-2-4-5-2-4-2-----0-----4-2---|
E|-0h2-------------------------0h2-----------0-|

e|---------------------------------------------|
B|---------------------------------------------|
G|---------------------------------------------|
D|-------2-0-------------------------2-0-------|
A|-----0-----4-2-0-2-4-5-2-4-2-----0-----4-2-0-|
E|-0h2-------------------------0h2-------------|

Esta parte se toca 3-4 veces mas durante toda la cancion.

This part is played 3-4 times throughout the whole song.


Dudas o correcciones: ric_rod7@hotmail.com
Tap to rate this tab
# A B C D E F G H I J K L M N O P Q R S T U V W X Y Z