Enanitos Verdes - Tu Carcel tab

B|--5h7--7-5-----------------------------------------------------------|
G|------------6--6-6--8--10-10--6-6h8--8-6-5--5-5--6--8-8--5h6--6-5-3--|
D|---------------------------------------------------------------------|
A|---------------------------------------------------------------------|
E|---------------------------------------------------------------------|

E|-----------------------|
B|--3-3-5-6-5-3-5-6-8-8--|
G|-----------------------|x2
D|-----------------------|
A|-----------------------|
E|-----------------------|
d:
e|--2-------------------|
B|-------3--------------|
G|--2-------------------|
D|----------------------|
A|----------------------|
E|----------------------|

la:
e|-----------------------|
B|--2--------------------|
G|----2------------------|
D|------2----------------|
A|-----------------------|
E|-----------------------|

b-:

e|-2---------------------|
B|----3------------------|
G|-------4---------------|
D|---------4-------------|
A|-----------------------|
E|-----------------------|

sol:
e|--3--------------------|
B|--------2--------------|
G|-----------------------|
D|-----------------------|
A|-----------------------|
E|-----------3-----------|

la:

e|-----------------------|
B|-----2-----------------|
G|--------2--------------|
D|----------2------------|
A|-----------------------|
E|-----------------------|


Solo:

E|---------------------------------------------------------------------|
B|--5h7--7-5-----------------------------------------------------------|
G|------------6--6-6--8--10-10-10-6-6h8--8-6-5--5-5--6--8-8--5h6--6-5-3|
D|---------------------------------------------------------------------|
A|---------------------------------------------------------------------|
E|---------------------------------------------------------------------|

E|--------------------------------------------------------------|
B|--3-3-5-6-5-3-5-6-8-8--8b--8b-8b-8b-8b-8b-8b--8b--------------|
G|--------------------------------------------------------------|
D|--------------------------------------------------------------|
A|--------------------------------------------------------------|
E|--------------------------------------------------------------|
 !hola!espero que les guste las tabs mias.el punteo de esta cancion son las
 tabs que estan mas arriba las que dicen d la b sol y la. el ritmo de esta can cion es 
arriba,arriba abajo,abajo,abajo,arriba,arriba,arriba abajo arriba.... toquela asi.
Tap to rate this tab
 
# A B C D E F G H I J K L M N O P Q R S T U V W X Y Z