Song name
# A B C D E F G H I J K L M N O P Q R S T U V W X Y Z

Enanitos Verdes - En Vivo tab

Despues agrego guitarras blancas… ya merito acabo

1.	Amores Lejanos

E|-----------------------------------------------------|
B|-----0-1-3-3/5~-3-1-3~-3/5~-1------------------------|
G|---2--------------------------2-2~-0---0-------------|
D|-2-----------------------------------2---0-2---0-----|
A|---------------------------------------------3---0---|
E|-----------------------------------------------------|

E|------------------------------------------------------------------------|
B|-------5-6-8-4h5---------------------------5-6-5-----5------------------|
G|---5-7-----------5---5-7/9\7p5-7~----4-5-7-------7-5---7-5-7-5-4--------|
D|-7-----------------7---------------7-----------------------------7-5-7~-|
A|------------------------------------------------------------------------|
E|------------------------------------------------------------------------|

E|---------------5-7-8-7~-5---------------------------------------|
B|---------5-6-8------------8-6-5~-6-5-------5-6--8-6-5---5h6-5~--|
G|---4-5-7-----------------------------7-5-7------------7---------|
D|-7--------------------------------------------------------------|
A|----------------------------------------------------------------|
E|----------------------------------------------------------------|

e|------------------------12-13--15-13-12-13-12----13-12-------12-10-----------|
B|------------10-12-13-15-----------------------15-------15-13-------13-12-10--|
G|----9-10-12------------------------------------------------------------------|
D|-12--------------------------------------------------------------------------|
A|-----------------------------------------------------------------------------|
E|-----------------------------------------------------------------------------|

E|-------------------------------------------------------------|
B|-13-12-10---10-12----10--------------------------------------|
G|----------12------12----9-10--7-9--5-4--2-0-2-2-2-2-2-2-2~---|
D|-------------------------------------------------------------|
A|-------------------------------------------------------------|
E|-------------------------------------------------------------|

(Intro)
E|-------------------1--------------0----------0-----|
B|-----0-1-3-----------3--------1-3---3-1--------1---|
G|---2-------2-0---2-----2----2--------------2-----2-|
D|-2-------------0----------3--------------2---------|
A|---------------------------------------------------|
E|---------------------------------------------------|

E|-------------------1--------------0-----------0--------0---|
B|-----0-1-3-----------3--------1-3---3-1-----1---1----3---3-|
G|---2-------2-0---2-----2----2-------------2--------1-------|
D|-2-------------0----------3-------------2------------------|
A|-----------------------------------------------------------|
E|-----------------------------------------------------------|

  Dm                         Am
Esta tarde no pasa nada, las calles parecen desiertas,
     Dm                          Am                G
Carmencita se fue de viaje, y quiza nunca mas la vea.
      Dm                         Am
yo mirando por la ventana, el asfalto brillando perlas,
     Dm                F             C                E7
los lugares que frecuentaba, no me atraen ni me interesan.


   E|----5----7----8-----10----12--|
   B|------------------------------|
   G|-/5---/7---/9---/10----12-----|
   D|------------------------------|    Riff 1
   A|------------------------------|
   E|------------------------------|

                  C   G                 Am
y aunque hoy no estas,     voy planificando


E|-------------0--------------------|
B|---1---0-1-----1------0h1-0-------|
G|-----------------2----------2-0---|      Riff 2
D|-----2-----2--------2-----------3-|
A|----------------------------------|
E|----------------------------------|

            F7  G              Am
una y otra vez        amores lejanos.

Riff 2
                  C    G                     Am
y aunque hoy no estas,       te habro mis brazos

Riff 2
           F7   G             Am
yo me quedare,       aqui esperando

         E|------------0---|
         B|--1---0-1-------|
         G|----------------|
         D|----2-----2-----|
         A|----------------|
         E|----------------|

(INTRO)

Esta tarde no pasa nada, no me puedo olvidar de ella,

E|-------8---------7--------5------5-|
B|-----6---------6--------5------5---|
G|---7---------7--------5------5-----|
D|-7---------7--------7------7-------|
A|-----------------------------------|
E|-----------------------------------|

hace un mes que la estoy pensando, y no se si de mi se acuerda.

E|-------8---------7--------5--3--3-3-3-|
B|-----6---------6--------5----3--3-3-3-|
G|---7---------7--------5------4--4-4-4-|
D|-7--------7---------7--------5--5-5-5-|
A|-----------------------------5--5-5-5-|
E|-----------------------------3--3-3-3-|

el futuro es algo incierto, pero ese no es el problema,

E|-------8---------7--------5------5-|
B|-----6---------6--------5------5---|
G|---7---------7--------5------5-----|
D|-7---------7--------7------7-------|
A|-----------------------------------|
E|-----------------------------------|

donde pongo mi sentimiento, si esta noche hay luna llena.

E|-------8-------1--0-|
B|-----6-------1----1-|
G|---7-------2------0-|
D|-7-------3--------2-|
A|------------------3-|
E|--------------------|

Riff 1

         C   G                 Am
y aunque hoy no estas,     voy planificando

Riff 2
            F7  G              Am
una y otra vez        amores lejanos.

Riff 2
                  C    G                     Am
y aunque hoy no estas,       te habro mis brazos

Riff 2
           F7   G             Am
yo me quedare,       aqui esperando

         EI------------0---|
         BI---1---0-1------|
         GI----------------|
         DI-----2-----2----|
         AI----------------|
         EI----------------|

SOLO:

E|----------------------------------------------------------|
B|-----0-1-3--------3/5-3~--8p5-----------------------------|
G|---2-------2-0----------------7p5-7~-5-7~-5---------------|
D|-2-------------0----------------------------7p5-----------|
A|------------------------------------------------7\5p3-5~--|
E|----------------------------------------------------------|

E|----------------------------------|
B|-------5-6-8-4h5------------------|
G|---5-7-----------5---5-7/9\7p5-7~-|
D|-7-----------------7--------------|
A|----------------------------------|
E|----------------------------------|

E|----------7-10-8-7----8-7------7-----------------------------------------|
B|--------8----------10-----10-8---10/12-10-12-13-13/15-13-12-13-15/17-17--|
G|------9------------------------------------------------------------------|
D|-7h10--------------------------------------------------------------------|
A|-------------------------------------------------------------------------|
E|-------------------------------------------------------------------------|

E|-8-7----------------------------8-7-------------------|
B|-----10-8-8/10-10~-8-10-10~--------10-8---------------|
G|----------------------------7/9---------7/9-9~-7-9-9~-|
D|------------------------------------------------------|
A|------------------------------------------------------|
E|------------------------------------------------------|

E|-----8-7------8-8~-7---7-8/10-10~-8/12-8----8h10-8-|
B|---------10-8--------8-------------------10--------|
G|-7/9-----------------------------------------------|
D|---------------------------------------------------|
A|---------------------------------------------------|
E|---------------------------------------------------|

E|-------12----10----8----7--7~-|
B|------------------------------|
G|-11/12---10----9----9/7-------|
D|------------------------------|
A|------------------------------|
E|------------------------------|

oh oh oh oh   oh oh oh oh   oh oh oh oh
E|------------|------------|--------------------------------|
B|------------|------------|-8h10-10-10-8-10-10-10-8-10-10--|
G|-7h9—7------|-7h9—7------|--------------------------------|
D|--------7-7-|--------7-7-|--------------------------------|
A|------------|------------|--------------------------------|
E|------------|------------|--------------------------------|

   oh oh oh oh      oh oh oh oh       oh oh oh oh
E|-----------------|---------------|------------------|
B|-10-8-10--10-----|-10-10--8-8-8--|------------------|
G|-----------------|---------------|-7p5-7-5--7s9-9---|
D|-----------------|---------------|------------------|
A|-----------------|---------------|------------------|
E|-----------------|---------------|------------------|

E|-10/12-10--------|---------------|
B|----------10-10--|-----8-8---8---|
G|-----------------|-7/9-----9-----|
D|-----------------|---------------|
A|-----------------|---------------|
E|-----------------|---------------|

                 C  G               Am
   y aunque hoy no estas,     voy planificando
                 F7  G              Am
   una y otra vez        amores lejanos.

                     C   G                    Am
   y aunque hoy no estas,       te habro mis brazos

Riff 2
                F7    G             Am
   yo me quedare,       aqui merito esperando.

2.	Tequila
(Intro)
E---------------------------------|
B-----1-----1------3---3---1------|
G---2-----0------0------------0---|
D-2------------------0---0--------|
A-------3-------------------------|
E-------------3-------------------|


Solo 1 (1:29):
 sb= slow bend                                                    w/bar

-----------8-10-11\10sb--10br=p8----8---------8---------------------------|
-8sb~~-/10-----------------------10---10br~-10-10-------------------------|
--------------------------------------------------9-8-7-5-7/9-7~~/\/\/----|
--------------------------------------------------------------------------|
--------------------------------------------------------------------------|
--------------------------------------------------------------------------|

Outro (3:27): wah-wah

E-|------------------------|------------------------------|
B-|o----------------------o|--8b10~--b10r8p5--------------|
G-|-----5---5~--------7-5~-|-----------------7-5-7/\/\/---|
D-|--7~---7----7-5~-7------|------------------------------|
A-|o----------------------o|------------------------------|
E-|------------------------|------------------------------|

E--------------------------------------|
B--------------------------------------|
G-14b16-14b16-14b16--14b16r14-12-14~---|
D--------------------------------------|
A--------------------------------------|
E--------------------------------------|

E-----------------------------------------------------------------------|
B-----------------------------------------------------------17-20b22~---|
G-------------------------------------17~---------17-19~----------------|
D-17h19-19-19-17h19-19-19-17h19-19-19----17h19-19--------19-------------|
A-----------------------------------------------------------------------|
E-----------------------------------------------------------------------|


E--------------------------------------------------------------------|
B-b22r20p17----17-------------------------------------------17-17----|
G-----------19----19b21r19-17----19----17-------------17-------------|
D-----------------------------19----19------19p17-19-----19----------|
A--------------------------------------------------------------------|
E--------------------------------------------------------------------|

E-------17-19-20b22~-20p19p17----19~-17----17--------------------------------------|
B-20b22-----------------------20--------20----20/22-17~----17----------------------|
G-------------------------------------------------------19----21\19-17-19-21-17~---|
D----------------------------------------------------------------------------------|
A----------------------------------------------------------------------------------|
E----------------------------------------------------------------------------------|

E------------------------------------------------------------------------|
B------------------------------------------------------[5]-[7]-----------|
G-17--16-17--14h16--12-14/\/\/\12\11\9\7\6\4\2p0---[5]-------------[5]---|
D--------------------------------------------------------------[5]-------|
A------------------------------------------------------------------------|
E------------------------------------------------------------------------|


-------------------|
-------------------|
-[5]--dive bomb----|
-------------------|
-------------------|
-------------------|


{ Am, C, G, D, C) toda la cancion hasta

solo 1

y despues

Bm         G
Donde estas
      Bm         G
te llamo y no me respondes,
Bm         G
oh! mi amor
D          C
donde estas
D          C
donde estas
D          C    D X??
donde estas

Am    C      G     D,C
Nací para sufrir………………..


Solo 2

3.	Por El Resto

Intro:

---------------------------------------------------------------------------------|
---------------------------------------------------------------8-10~~-10\--------|
----5-7-7/9~--5-7-7/9-------------------------5-7-7/9~-5-7-7/9------------7-9~---|
----------------------5-7~--5-7/9\7--5-7/9\7-------------------------------------|
---------------------------------------------------------------------------------|
-17\-----------------------------------------------------------------------------|

-----------------------------------------------------------------------------------------|
-------------------------------------------------------------8-10~10~-/15-15-15h17-17~---|
-5-7-7/9~--5-7-7/9-------------------------5-7-7/9~--5-7-7/9-----------------------------|
-------------------5-7~-7p5-7/9\7--5-7/9\7-----------------------------------------------|
-----------------------------------------------------------------------------------------|
-----------------------------------------------------------------------------------------|

Verse:

                                    F
Nunca necesitaste a nadie para vivir
	 	     		Am7
Ni siquiera te fijaste que había a tu alrededor
 			         F
Desesperado mirabas las paredes de tu habitación
         Dm				E
Y gritaste fuerte pero nadie te conoció
  	  F
Y ahora tendrás que seguir
           Dm
Cargando tu cruz

Chorus:

------------------------------------------------------------------|
------------------------------------------------------------------|
------------------------------------------------------------------|
------------------------------------------------------------------|
------------------------------------------------------------------|
-5-0-3-5~--0-3-0-5-0-3-5~--0-1-0-1-1-0-1~--0-1-0-3-0-1-3~--0-1-0--|

------------------------------------------------------------|
------------------------------------------------------------|
------------------------------------------------------------|
------------------------------------------------------------|
------------------------------------------------------------|
-5-0-3-5~--0-3-0-5-0-3-5~--0-1-0-1-1-0-1~--0-1-0-3-0-1-3~---|

Riff:

---------------------------------------------------------------------------------------------|
--------------------------------------------------------------8-10~~--/17--17-17--17-17-17~--|
--5-7-7/9~--5-7-7/9-------------------------5-7-7/9~-5-7-7/9---------------------------------|
--------------------5-7~--5-7/9\7--5-7/9\7---------------------------------------------------|
---------------------------------------------------------------------------------------------|
---------------------------------------------------------------------------------------------|

Verse 2 (Same Chords as verse 1):


Chorus:

------------------------|
------------------------|
------------------------|
------------------------|
------------------------|
-5-0-3-5~--0-3-0-5~~\---|

Solo 1 w/wah on some parts (2:21):

---------------------------------------------------------------13b--15b~--15----------|
-18b~~~sostiene por 12 segundos----------------------------------------------13-------|
--------------------------------5~-7-7/9~-5~-4-5--------------------------------12~---|
-------------------------------------------------7-5~/\/-w/bar------------------------|
--------------------------------------------------------------------------------------|
--------------------------------------------------------------------------------------|

     despacio
-----------------/13-12-10-------------------------------------------------------------|
-15h=17p15\13~-------------13-13/15-15-13--15-------------------------wha-bar----------|
----------------------------------------------12h14-14~/\/\/---14h16-16b17-16-14-16~---|
---------------------------------------------------------------------------------------|
---------------------------------------------------------------------------------------|
---------------------------------------------------------------------------------------|

     T       T        T      T       T     T      T      T      T
-15-17p15---18p16----18p17--19p17--20p17--21p17--22p19--23p19--24p19-24~--10//--|
------\-----/---------\-------|------|------|------/----------------------------|
-------\---/-----------\------|------|------|-----/-----------------------------|
--------\-/-------------\-----|------|------|----/------------------------------|
-----TAP 10-veces------------TAP 3    veces-------------------------------------|
--------------------------------------------------------------------------------|

-24b26~--24b26~--24\\-----------12---------------------0-------------0-----|
----------------------------/15----13--------------0---0-0-------0---0-----|
--------------------------------------12~\/\---------2-----2-------2-------|
---------------------------------------------------------------------------|
---------------------------------------------------------------------------|
-------------------------------------------------2-------------2-----------|

Solo 2 wah-wah (3:19):
------|-----------------------------|-----|----------------------------------|
------|o---------------------------o|-----|o-/12-10-----12-10-/13-12-10------|
------|---/4--2------4-2-/5-4-2-----|-(5)-|---------9~~-----------------10~--|
------|---------2~~-------------3~~-|-----|----------------------------------|
------|o---------------------------o|-----|o---------------------------------|
-/21\-|-----------------------------|-----|----------------------------------|
                                                               A.H.

--------|
-18b~~-o|
--------|
--------|
-------o|
--------|

Outro:
                                           x7                             x3
-----------|------------------|--------|--------------------|--------------1~--3~---|
-----------|o----------------o|--------|o------------------o|--------------1~--3~---|
-----------|------------------|--------|--9~-5-7-9~--5-7-5--|--9~-5-7-9~~--2~--4~---|
-----------|------------------|--------|--------------------|--------------3~--5~---|
-----------|o----------------o|--------|o------------------o|-----------------------|
-5-0-3-5~--|--0-3-0-5-0-3-5~--|-0-3-0--|--------------------|-----------------------|


-17----------17------------------17---------------------------------------------------|
----20b-20b~----20b22r20p17-20b~----20b22r20p17--17h20p17----17h20p17----17h20p17-----|
----------------------------------------------------------19----------19----------20--|
--------------------------------------------------------------------------------------|
--------------------------------------------------------------------------------------|
--------------------------------------------------------------------------------------|

---------------------------/\-------------------|
--------------------------/--\------------------|
-19p17----17h19~~/\------/----\----/------------|
-------19----------\----/------\--/------7\-----|
--------------------\--/--------\/-------7\-----|
---------------------\/------------------5\-----|
                  ABUSO DEL WHAMMY!!!

4.	Tu Carcel

Intro:

E|-----------------------------------------------------|
B|o----------------------------------------------------|
G|--9/11--11p9\7----7-7-9-11-11--11-7h9--9p7\6---------|
D|-----------------------------------------------------|
A|o----------------------------------------------------|
E|-----------------------------------------------------|


E---------------------------------------------------|
B--------------------------------------------------o|
G--6-6-7-9-9--9-6h7--7p6\4---4-4-4-4-6-7-6-7/9-9----|
D---------------------------------------------------|
A--------------------------------------------------o|
E---------------------------------------------------|


D
Te vas amor si así lo quieres
      A
que puedo yo hacer, tu vanidad
        Bm
no te deja entender
G                      A        A7
que en la pobreza se sabe querer.

Esos son todos los acordes de la cancion


    Luego se toca el intro otra vez pero termina asi:

E---------------------|
B---------------------|
G--9b11r9b11r9b11r9---|
D---------------------|
A---------------------|
E---------------------|


Solo Final

E-15/17--17p15p14~-14-14-15-17-17--17-14h15--15p14\12---|
B-------------------------------------------------------|
G-------------------------------------------------------|
D-------------------------------------------------------|
A-------------------------------------------------------|
E-------------------------------------------------------|

E-12-12-14-15-15--15-12h14--14p12\10~-10-10-10-10-12-14--12-14-15--14-15-17--|
B----------------------------------------------------------------------------|
G----------------------------------------------------------------------------|
D----------------------------------------------------------------------------|
A----------------------------------------------------------------------------|
E----------------------------------------------------------------------------|

E-17b19r17p15--17~~---|
B---------------------|
G---------------------|
D---------------------|
A---------------------|
E---------------------|


Se repite el intro

5.	Mi Primer Sin Ti


E---------0------------------------------------------------------------------|
B-----2-----2------2--------5------7p4-----5p4--------3------5p3-----3p2-----|
G-------2-----2------2--------4--------4-------4--------2--------2-------2---|
D---2------------2--------6------6-------6----------4------4-------4---------|
A-0---------------------4-------------------------2--------------------------|
E----------------------------------------------------------------------------|

E-----------------------------------------------7/9\7-----------|
B-0--0--0---------2------------------------5----7/9\7---5/7\5---|
G-1--2--4~----------2--6-8-8h9--8p6----------4----------4/6\4---|
D-2--2--2~------2-------------------7----6----------------------|
A-2--2--2~----0------------------------4------------------------|
E---------------------------------------------------------------|

E---------------------------|
B-----3-------5-3---3p2-----|
G-------2----x----------2---|
D---4-------x---------------|
A-2--------x------2---------|
E---------------------------|


            F#m
   Que pronto te marcharias
           C#m
   sin ninguna explicacion,
           D
   quizas te parezca facil
          Bm                E
   que soporte este dolor, uuuh!

   X3
-|------------------|------------------------------------------------------------|
-|o---------5/7-5~-o|-----------------------5/7-5~---------7sb~---------5/7-5~---|
-|--4/6-4-----------|-4/6--7-6-4~---4/6-4----------4/6-4--------4/6-4------------|
-|--------7---------|---------------------7--------------7------------7----------|
-|o----------------o|------------------------------------------------------------|
-|------------------|------------------------------------------------------------|

----------------------|
----------------------|
-4/6-7-6-4~-----------|
------------/6~-------|
----------------7~~---|
----------------------|

         A
A) Olvidaste algunas cosas
         C#m
   en tu rapido partir
         Bm
   y ahora son como tesoros
         E
   que conservo para mi


   Nunca me dijiste nada
   acerca de tu pasion
   seducir hasta ganarlo
   y despues decir adios.

         F#m
B) Sabes que te marcharias
         C#m
   sin ninguna explicacion
         D
   quizas te parezca facil
         Bm
   que soporte este dolor
         E
   que carge con tu dolor


                    A   C#m    F#m
C) Porque este es mi primer dia sin verte
                D   Bm     E
   este es mi primer dia sin ti
                A       C#m   F#m
   y la habitacion se me hace gigante
                     D      Bm        E
   me siento tan pequeno si no estas aqui,
                     A - C#m - Bm - E
   no lo puedo entender...

Solo:
     x2
-|------------------|--------------------------------------------------|
-|o---------5/7-5~-o|-----------------------5/7-5~--7/9-9-10p9-12b14~~-|
-|--4/6-4-----------|-4/6--7-6-4~---4/6-4------------------------------|
-|--------7---------|---------------------7----------------------------|
-|o----------------o|--------------------------------------------------|
-|------------------|--------------------------------------------------|

---------------------------------------------------|
-12b14r12b14r12p10\9-12~--12p10\9\7\5h7/9p7~--5~~--|
---------------------------------------------------|
---------------------------------------------------|
---------------------------------------------------|
---------------------------------------------------|

A) Cuando termino el verano
   todo parecia bien
   pero no me daba cuenta
   yo confiaba sin saber
A) Nunca...

B) Sabes...

C) Porque este es... (bis)
   no lo puedonentender

Outro:

---------------------------14-----------------------------------------------------|
------------------------------14-17b19~--17b19r17p14-17b19~---17b19r17p14---------|
-6 tremolo w/wah-------/16------------------------------------------------16sb~---|
----------------------------------------------------------------------------------|
----------------------------------------------------------------------------------|
----------------------------------------------------------------------------------|

|-----------------------------------------------------|----------------------------|
|o-14-17-17b19~-17b19r19p14-17b19~--17b19r17p14------o|----------------------------|
|-----------------------------------------------16sb~-|-16p14-16----14-16b~/\/\/---|
|-----------------------------------------------------|----------16----------------|
|o---------------------------------------------------o|----------------------------|
|-----------------------------------------------------|----------------------------|

-------------------------------------------|
-------------------------------------------|
-16p14----16-14h16-14~---/9--7--6----------|
-------16--------------------------7~~~~---|
-------------------------------------------|
-------------------------------------------|

Satriani

------------------------------------------------------------------------|
----10---------------------------------10-------------------------------|
-/9----9-9/12~--11-9-7-9/11-9~~~----/9----9-9/12~--11-9-7-7/9~~\2~~~----|
------------------------------------------------------------------------|
------------------------------------------------------------------------|
------------------------------------------------------------------------|


----------------------------------------------------|
----10----------------------------------------------|
-/9----9-9/12~--11-9-7-9/11-12~--11-9-7-9/11-9~~~---|
----------------------------------------------------|
----------------------------------------------------|
----------------------------------------------------|

                                       T         T         T
---------------------------------------------------------------------------------|
-10-12-14-14b~~--12-10-12~--10~~=h12--14-12p10--14-12p10--14-12p10--many times---|
---------------------------------------------------------------------------------|
---------------------------------------------------------------------------------|
---------------------------------------------------------------------------------|
---------------------------------------------------------------------------------|

T      T     T     T     T     T     T     T    T    T    T    T    T
15-12-15-14-15-14-15-12-15-14-15-14-15-10-15-9-15-7-15-5-15-4-15-5-15-7----|
---------------------------------------------------------------------------|
---------------------------------------------------------------------------|
---------------------------------------------------------------------------|
---------------------------------------------------------------------------|
---------------------------------------------------------------------------|

 T    T    T    T    T    T    T    T    T    T    T      T    T
-15-5-15-4-15-2-15-4-15-5-15-4-15-2-15-0-15-2-15-4-15-4h5-15-4-15-2h4-5/7~~---|
------------------------------------------------------------------------------|
------------------------------------------------------------------------------|
------------------------------------------------------------------------------|
------------------------------------------------------------------------------|
------------------------------------------------------------------------------|

6.	La Muralla Verde

Intro:

|-----------------------2---|--------------------------------|
|--------5p4--4-------2---0-|-------5p4-4-----10/11--11\10---|
|--------6p4--4---2h3-------|-------6p4-4--4-----------------|
|---------------------------|-----------------10/11--11\10---|
|--4--4-------2-------------|--4--4-----2--------------------|
|---------------------------|--------------------------------|

|----------------------------|----------------------------------|
|-------5p4--4-----------7---|-------5p4----4-----4\2-2---------|
|-------6p4--4-4-------6---6-|-------6p4----4-------------------|
|--------------------5-------|-----------------4--4\2-2---1/2---|
|--4--4------2---4/6---------|--4--4-----4--2-------------------|
|----------------------------|----------------------------------|

|----------------------2---|-----------------------------------|
|-------5p4--4-------2---0-|-------5p4--4----9h10-12--11\10----|
|-------6p4--4---2h3-------|-------6p4--4----------------------|
|--------------------------|-----------------10---12--11\10----|
|--4--4------2-------------|--4--4------2----------------------|
|--------------------------|-----------------------------------|

|-------------------------------|----------------|
|-------5p4--4-----------7------|-------5p4--4~~-|
|-------6p4--4---------6----6---|-------6p4--4~~-|
|--------------------5--------5-|----------------|
|--4--4------2---4/6------------|--4--4------2~~-|
|-------------------------------|----------------|

                                                                            X3
|------------------------------|------------------11------------------------|
|o----------11b12~-11b12-11~---|-----------11b12~-----11b12r11p9h11--------o|
|-------9----------------------|-------9----------------------------9----9~-|
|--9h11---9--------------------|--9h11---9----------------------------11----|
|o-----------------------------|-------------------------------------------o|
|------------------------------|--------------------------------------------|

|---------------------------------------|---------------11---------------------------|
|----------11b12~-11-9-11-11b12-11-9-11-|---------11b12~---11b12r11p9h11-------------|
|------9--------------------------------|------9-------------------------9----9~/\/--|
|-9h11---9------------------------------|-9h11---9-------------------------11--------|
|---------------------------------------|--------------------------------------------|
|---------------------------------------|--------------------------------------------|

C#m                   F#7
Estoy parado sobre la muralla que divide
C#m                  F#7
todo lo que fue y lo que será
  C#m                   F#7
estoy mirando como esas viejas ilusiones
  C#m                     F#7
pasando la muralla se hacen realidad
              D#m7     G#m
Pero como el amor de ayer
              D#m7     G#m
Pero como el amor de ayer

            D#m7 G#m      F#7
volvió a desaparecer, desaparecer

|------------------------------|------------------11-----------------------|
|-----------11b12~-11b12-11~---|-----------11b12~-----12r11p9h11-----------|
|-------9----------------------|-------9-------------------------9----[9]~-|
|--9h11---9--------------------|--9h11---9-------------------------11------|
|------------------------------|-------------------------------------------|
|------------------------------|-------------------------------------------|


|------------------------------|------------------11----------------------------|
|-----------11b12~-11b12-11~---|-----------11b12~-----11b12r11p9h11-------------|
|-------9----------------------|-------9----------------------------9----9~/\/--|
|--9h11---9--------------------|--9h11---9----------------------------11--------|
|------------------------------|------------------------------------------------|
|------------------------------|------------------------------------------------|

C#m                   F#7
Estoy parado sobre la muralla que divide
C#m                   F#7
todo lo que amé de lo que amaré
  C#m                    F#7
eeeestoy mirando como mis heridas se cerraron
  C#m                       F#7
y cómo se desangra un nuevo corazón
              D#m7     G#m
Pero como el amor de ayer    Oy Tijuana!

Pero como el amor de ayer

volvió a desaparecer, desaparecer

SOLO:

E---------------------------------------|
B--------9~~----------------------------|
G--------9~~----------------------------|
D--------9~~---11p9--11b12r11b12r11~~---|
A---------------------------------------|
E--/18\---------------------------------|

E---------------------------------11-------12/14-12~----12\11----11------------------|
B—12b14~~--b14r12p9----9-11h12/14----12-14--------------------14----12---------------|
G-------------------11------------------------------(11)---------------11h13b14r13~--|
D------------------------------------------------------------------------------------|
A------------------------------------------------------------------------------------|
E------------------------------------------------------------------------------------|


E-------------11-14-12-11----12-11-------11--------------------------------------|
B----------12-------------14-------14-12----14/16--12-14—14b16==b17r14p12--14~~--|
G-------13-----------------------------------------------------------------------|
D-11h14--------------------------------------------------------------------------|
A--------------------------------------------------------------------------------|
E--------------------------------------------------------------------------------|

E---------------------------------------|
B-12----12---------------------12b14~---|
G----13----13p12\9-----11----9----------|
D-------------------11----11------------|
A---------------------------------------|
E---------------------------------------|

E-9-11----9---------11-12-14=p12p11----12\---|
B------12---9-12/14-----------------14-------|
G--------------------------------------------|
D--------------------------------------------|
A--------------------------------------------|
E--------------------------------------------|

                   T            T                   T
E-12/14h16p12h14--17-16p14p12--16/17-16p14p12h--16-17-16---16p14p12---|
B--------------------------------------------------------0------------|
G---------------------------------------------------------------------|
D---------------------------------------------------------------------|
A---------------------------------------------------------------------|
E---------------------------------------------------------------------|

       T       T       T       T       T       T
E-------------------------------------------------------|
B-h16-17--16--17--12--17--14--17--16--17--14--17--12~~--|
G-------------------------------------------------------|
D-------------------------------------------------------|
A-------------------------------------------------------|
E-------------------------------------------------------|

         T      T               T      T
E-------17-12--16\17-14p12p11--17-12--16/17-16p14p12---|
B-12h14------------------------------------------------|
G------------------------------------------------------|
D------------------------------------------------------|
A------------------------------------------------------|
E------------------------------------------------------|

       T            T             T      T      T
E------------------------------------------------------|
B-h16-17--16p14p12--16/17-12h16--17-16--17-14--17-12---|
G------------------------------------------------------|
D------------------------------------------------------|
A------------------------------------------------------|
E------------------------------------------------------|

   T    T      T        T     T      T
E----------------------------------------------------------|
B----------------------------------------------------------|
G-17-13-17-12-17-12\9--17-11-17-9\8-17-9p8\6\4h6--/8--9~---|
D----------------------------------------------------------|
A-------------------------------------------------/6--7~---|
E----------------------------------------------------------|

E-----------------------------------|
B-----------------------------------|
G---8--6-8---9--8\6---6-6-8-8-9-9---|
D---x--x-x---x--x-x---x-x-x-x-x-x---|
A---6--4-6---7--6\4---4-4-6-6-7-7---|
E-----------------------------------|

E---------------------------------------------------------------------------------------|
B---------------------------------------------------------------------------------------|
G-/11--11--11--/13---13--13---13-13--13/15--15--15--15/16--16/18--18--18--18-18--18/20--|
D---x---x---x----x----x---x----x--x---x--x---x---x---x--x---x--x---x---x --x--x---x--x--|
A--/9---9---9--/11---11--11---11-11--11/13--13--13--13/14--14/16--16--16--16-16--16/18--|
E---------------------------------------------------------------------------------------|

E-----------------------------------------------------------------------------|
B-----------------------------------------------------------------------------|
G-20--20---20-20--20/21--21--21---21/23---23--23--23----23-----23----23--23---|
D--x---x----x--x---x--x---x---x----x--x----x---x---x-----x------x-----x---x---|
A-18--18---18-18--18/19--19--19---19/21---21--21--21----21-----21----21--21---|
E-----------------------------------------------------------------------------|

E------------------------------------------|
B------------------------------------------|
G-23---23--23--23----23---23--23--23--23---|
D--x----x---x---x-----x----x---x---x---x---|
A-21---21--21--21----21---21--21--21--21---|
E------------------------------------------|

E-------------------------------------------------------------------------------|
B-------------------------------------------------------------------------------|
G-23--23-23----23--23---23-23-23---23--23---23-23----23-23-23-23-23-23-23-23\---|
D--x---x--x-----x---x----x--x--x----x---x----x--x-----x--x--x--x--x--x--x--x----|
A-21--21-21----21--21---21-21-21---21--21---21-21----21-21-21-21-21-21-21-21\---|
E-------------------------------------------------------------------------------|

E--------------------------------|
B-17b19r17--16-17-16-14-16-17~---|
G--------------------------------|
D--------------------------------|
A--------------------------------|
E--------------------------------|

E--------------------14\12--14-12-14/16-12---|
B-17p16p14--14-16h17-------------------------|
G--------------------------------------------|
D--------------------------------------------|
A--------------------------------------------|
E--------------------------------------------|

E----12\11----11----------------------------------|
B-14-------14----12---------------------12b14~~---|
G-------------------13\11p9-----11----9-----------|
D----------------------------11----11-------------|
A-------------------------------------------------|
E-------------------------------------------------|


E-9-9\7-----7------------------|
B-------9-9----7\5---5-7/9~~---|
G------------------8-----------|
D------------------------------|
A------------------------------|
E------------------------------|


E-------------------------------------------------------------------------------------|
B-7\4h5-7-----------------------------12~--11~--12-14-11~--12-12/14-14~/\--/----------|
G---------6/8~--8\6p4/6wb6wb\1/\--/--------------------------------------\/-----/6~---|
D-------------------------------\/---------------------------------------WB-----------|
A-------------------------------WB----------------------------------------------------|
E-------------------------------------------------------------------------------------|


"Circo"

Esta parte usa distorcion cubre la guitarra con la mano izquierda (resulta en 0 ruido) y 
la mano derecha ten el whammy y toca la guitarra como si fuera un cello o violin.

|--FEEDBACK------------------------------------|
|----------------------------------------------|
|-/6~~~~~--8~--9-9/11~--11-11/13-8~/\--/-------|
|------------------------------------\/--------|
|----------------------------------whammy------|
|----------------------------------------------|


Estoy parado sobre la muralla que divide

todo lo que fue de lo que será

  C#m                      F#7
estoy mirando como esa vieja sicodelia
  C#m                F#7
estoy fijándome como viene y va
              D#m7     G#m
Pero como el amor de ayer
              D#m7     G#m
Pero como el amor de ayer
            D#m7 G#m      F#7
volvió a desaparecer, desaparecer

Outro:

|--------------------------------|--------------------12----------------------------|
|-------------12b14~-12b14-12~---|-------------12b14~----12b14r12p10h12-------------|
|-------10-----------------------|-------10-----------------------------10----10~---|
|-10h12----10--------------------|-10h12----10-----------------------------12-------|
|--------------------------------|--------------------------------------------------|
|--------------------------------|--------------------------------------------------|

|----------------------------------|-------------------12----------------------------|
|-------------12b14~-12b14-12~-12~-|------------12b14~----12b14r12p10h12-------------|
|-------10-------------------------|-------10----------------------------10----10~---|
|-10h12----10----------------------|-10h12----10----------------------------12-------|
|----------------------------------|-------------------------------------------------|
|----------------------------------|-------------------------------------------------|

|----------------------------------|--------------------14-----------------------------|
|-------------14b15~-14b15-14~-14~-|-------------14b15~-----14b15r14p12h14-------------|
|-------10-------------------------|-------12------------------------------12----12~---|
|-10h12----10----------------------|-12h14----12------------------------------14-------|
|----------------------------------|---------------------------------------------------|
|----------------------------------|---------------------------------------------------|
                                                                     X8
|--------------------------------------------|--------------------14--------|
|-------------14b15~-14-12-14-14b15-14-12-14-|-------------14b15~----14b15~-|
|-------12-----------------------------------|-------12---------------------|
|-12h14----12--------------------------------|-12h14----12------------------|
|--------------------------------------------|------------------------------|
|--------------------------------------------|------------------------------|

Wah-Wah

|-----------------------------|
|----------12---12-11~--------|
|----11-13----13-------13-9~--|
|-11~-------------------------|
|-----------------------------|
|-----------------------------|

|-------------------------------------|
|----------12----12-11~--14-14~-\7~---|
|----11-13----13----------------------|
|-11~---------------------------------|
|-------------------------------------|
|-------------------------------------|


|-------------------------------------------|
|----------12----12-11~--\9-7-9-7h9p7-------|
|----11-13----13----------------------8/9---|
|-11~---------------------------------------|
|-------------------------------------------|
|-------------------------------------------|

|-----------------------------------|
|----------12----12-11~-16-17b19~~--|
|----11-13----13--------------------|
|-11~-------------------------------|
|-----------------------------------|
|-----------------------------------|

Wah off

|------------------------------------------------------------------|
|------------------------------------------------------------------|
|------------------------------------------------------------------|
|---------------------------------11-11--9--9----------------------|
|-11--11-11--11-11-11--11-11-11-0-9--9---7--7--11--11-11--11-11-11-|
|-9---9--9---9--9---9--9--9--9--0--------------9---9--9---9--9---9-|

Muchas Gracias!

Acordes:

 C#m   F#7   D#m7  G#m
|-4-|-|-2-|-|-6-|-|-4-|
|-5-|-|-2-|-|-7-|-|-4-|
|-6-|-|-3-|-|-8-|-|-5-|
|-6-|-|-4-|-|-8-|-|-6-|
|-4-|-|-4-|-|-6-|-|-6-|
|-4-|-|-2-|-|-6-|-|-4-|

7.	Mil Horas


Acordes:

C#7,D#7,G#m….C#7,D#7


Intro 2X:

 e----------------------|
 b--4--6-6/7-7--6--4~~--|
 g----------------------|
 d----------------------|
 a----------------------|
 e----------------------|


 e---4--6-6/7-7--6--|
 b------------------|
 g------------------|
 d------------------|
 a------------------|
 e------------------|

 e------4--4/6--6--4--|
 b--7-----------------|
 g--------------------|
 d--------------------|
 a--------------------|
 e--------------------|


C#m7    D#m7         G#m
Hace frío y estoy lejos de casa,
      C#m7               D#m7             G#m
hace tiempo que estoy sentado sobre esta piedra,
         C#m7       D#m7           G#m
yo me pregunto para que sirven las guerras


e----------------------------|
b----------------------------|
g----------------------------|  RIFF 2   4X
d----------------------------|
a--4~~--2-4--2-----------2---|
e--------------4---2-4-------|


Tengo un cohete en el pantalón,

y vos estas tan fría,

como la nieve a mi alrededor,

vos estas tan blanca,
           E            <--- RIFF 2 TERMINA
que yo no se que hacer

G#m                                        C#m7
La otra noche te espere bajo la lluvia dos horas,
     D#m7           E    F#m
mil horas, como un perro,
G#m                                        C#m7
y cuando llegaste me miraste y me dijiste Loco,
        D#m7             E
estas mojado, ya no te quiero  a…a...a

Intro X2

       C#m7      D#m7         G#m                             e--------4~~---|
Y en el circo vos ya sos una estrella,                        B--------------|
        C#m7          D#m7          G#m                       G--4h6p4-------|
una estrella roja que todos se la imagina,  se lo alucina
          C#m7
si te preguntan,
     D#m7     G#m
vos no me conocías, no, no

RIFF 2	4x

Tengo un cohete en el pantalón,

y vos estas tan fría,

como la nieve a mi alrededor,

vos estas tan blanca,
           E             <--- Enter here
que yo no se que hacer

G#m                                        C#m7
La otra noche te espere bajo la lluvia dos horas,
     D#m7           E   F#m
mil horas, como un perro,
G#m                                        C#m7
y cuando llegaste me miraste y me dijiste Loco,
        D#m7             E
estas mojado, ya no te quiero  aaaaaaaayeah….

Solo:

----------------------------------------------------------------|
-7p6-------6-7p6-------6-7p6-------6-7p6-------6-7p6-------6-7--|
-----8-6-8-------8-6-8-------8-6-8-------8-6-8-------8-6-8------|
----------------------------------------------------------------|
----------------------------------------------------------------|
----------------------------------------------------------------|


-6-9p6-------6-9p6-------6-9p6----|
-------9-7-9-------9-7-9-------9--|
----------------------------------|
----------------------------------|
----------------------------------|
----------------------------------|

-4-6p4-------4-6p4-------4-6p4----|
-------7-4-7-------7-4-7-------7--|
----------------------------------|
----------------------------------|
----------------------------------|
----------------------------------|

----------------------------------------------------------------------------|
-6h7p6-------6-7p6-------6-7p6-------6-7p6-------6-7p6-------6-7p6----------|
-------8-6-8-------8-6-8-------8-6-8-------8-6-8-------8-6-8-------8p6h8p6--|
----------------------------------------------------------------------------|
----------------------------------------------------------------------------|
----------------------------------------------------------------------------|

--6h7p6--------6-7p6--------6-7p6----|
---------9-7-9--------9-7-9-------9--|
-------------------------------------|
-------------------------------------|
-------------------------------------|
-------------------------------------|

-11-14p11----------11-14p11----------11-14p11----11---|
----------12-11-12----------12-11-12----------12------|
------------------------------------------------------|
------------------------------------------------------|
------------------------------------------------------|
------------------------------------------------------|

-------------------------------------------------------------------------------------------------|
-14b16~~~-16r14p12s11--12s14==p12s11----------9s11~-12p11----------------------------------------|
-------------------------------------13~~--11-------------13p11~-13s9s8--------------------------|
------------------------------------------------------------------------9------------------------|
--------------------------------------------------------------------------11s7-6h7p6p4------6-6~~|
---------------------------------------------------------------------------------------7s9-------|

--------------------------------------------11-12-14-12-11----12p11----------------11-----------|
----------------11-12-14~--12-11------12h14----------------14-------14-12-11-12-14----14b16~~~--|
--8-----9-11s13------------------13~~-----------------------------------------------------------|
----/11-----------------------------------------------------------------------------------------|
------------------------------------------------------------------------------------------------|
------------------------------------------------------------------------------------------------|


   RIFF 2 4x

Tengo un cohete en el pantalón,

y vos estas tan fría,

como la nieve a mi alrededor,

vos estas tan blanca,
           E            <--- Enter here
que yo no se que hacer

G#m                                        C#m7    e-------------------------|
La otra noche te espere bajo la lluvia dos horas,  B--9s11--12--14-14s16~~---|
     D#m7           E
mil horas, como un perro,
G#m                                        C#m7
y cuando llegaste me miraste y me dijiste Loco,
        D#m7  C#m7        D#m7
estas mojado, loco estas mojado…… ya no te quiero……

Intro 4X

Acordes:

      C#7    D#7     G#m   E  F#m
 e-----4------6-------4----0---2--|
 b-----5------7-------4----0---2--|
 g-----4------6-------4----1---2--|
 d-----6------8-------6----2---4--|
 a-----4------6-------6----2---4--|
 e-----4------6-------4----0---2--|

8.	Frances Limon

Intro:

|---------------------------------------------------------------------------------------|
|o-------8-10-10/12~-12/13-10~-7-8-10-8/10~-10/12-8~---7-8-7h8~-8/10-7~-5-5/7~-5-7-8~--o|
|---9-11---------------------------------------------9----------------------------------|
|---------------------------------------------------------------------------------------|
|o-------------------------------------------------------------------------------------o|
|---------------------------------------------------------------------------------------|

   Am         B7        Em     Am        B7           Em E4
     Todo tiene el color,        de tus ojos, cómo ves
   Am         B7       Em       E   Am              B7               Em
     todo cambia, no así tu voz,      cuando me hablas en frances limón

              Am    B7    Em      E
  En un barco de papel yo volvere
      Am     B7     Em      E4
  por ti mi amor frances limón
               Am     B7     Em     E
  Las luces de la ciudad se apagaran
     Am   B7    Em
  te besaré, me besarás.

     Am       B7         Em     Am          B7         Em
       Me encanta tu actitud,    dios conserve tu salud
     Am      B7         Em            Am       B7         Em
       sólo por mirarte comprendí       para qué yo vine aquí

              Am    B7    Em      E
  En un barco de papel yo volvere
      Am     B7     Em      E4
  por ti mi amor frances limón
               Am     B7     Em     E
  Las luces de la ciudad se apagaran
     Am   B7    Em
  te besaré, me besarás.

Solo:

------------------------------------------------------------------------------------|
------8h10-10/12~-12/13-10~-7-8-10-8/10~-10/12-8~---7-8-7h8~-8/10-7~-5-7~-5-7-8~----|
-9h11---------------------------------------------9---------------------------------|
------------------------------------------------------------------------------------|
------------------------------------------------------------------------------------|
------------------------------------------------------------------------------------|

--------------------|
------8-10-10/12~---|
-9h11---------------|
--------------------|
--------------------|
--------------------|

---------------------------------------------------14-17-15-14----15-14----14-14---------|
-13b15r13-12p10-/15-13-12\10-12-10h12~----------15-------------17-------17-------17b19~--|
---------------------------------------------16------------------------------------------|
---------------------------------------14h17---------------------------------------------|
-----------------------------------------------------------------------------------------|
-----------------------------------------------------------------------------------------|

----------------10\8\7~--7h8p7-------7---------------------------------------------|
-b19r17p15-17~-----------------10/12---8/10-10/12~--10p8-10/12~-12/15~-15/17~~~~~--|
-----------------------------------------------------------------------------------|
-----------------------------------------------------------------------------------|
-----------------------------------------------------------------------------------|
-----------------------------------------------------------------------------------|

     Am       B7         Em
       Me encanta tu actitud,
     Am       B7         Em
       de tus ojos, cómo ves

     Am       B7         Em
       todo cambia, no así tu voz,
     Am       B7         Em
       cuando me hablas en frances limón

              Am    B7    Em      E
  En un barco de papel yo volvere
      Am     B7     Em      E4
  por ti mi amor frances limón
               Am     B7     Em     E
  Las luces de la ciudad se apagaran
     Am   B7    Em
  te besaré, me besarás.

Outro:

------------------------------------------------------------------------------------|
------8h10-10/12~-12/13-10~-7-8-10-8/10~-10/12-8~---7-8-7h8~-8/10-7~-5-7~-5-7-8~----|
-9h11---------------------------------------------9---------------------------------|
------------------------------------------------------------------------------------|
------------------------------------------------------------------------------------|
------------------------------------------------------------------------------------|

------------------------------------------------------------|
------------------------------------------------------------|
-----0-2-2h4~-4h5-2~---0-2~~-2/4----------------------------|
-2-4-----------------4-----------5~-2-4-5-4/5~-5/7-4~-2~----|
------------------------------------------------------------|
------------------------------------------------------------|

9.	Eterna Soledad

Con slide

B|-----------------------------------|
G|-/12-12-9-9-5-2/5-12-12-9-9-5-5/9--|
D|-----------------------------------|

e|--------------------------------------------|
B|-----13/15-15/17-13-------------------------|
G|-/12----------------12-12/14-12-12-9-5/7-5--|
D|--------------------------------------------|

e|----------------------------------------|
B|-----13/15-15/17-13---------------------|
G|-/12----------------12-12/14-12-12-9-5--|
D|----------------------------------------|
            C               F
Eterna soledad, el tiempo danza en la madrugada,
               C                       F
Y no podés dormir si están todas las luces apagadas.
        Am        C           Dm           G         Am C
Ya se fué el tren y esta calle nunca más será igual.
       Dm              G          F          E        Am
Aprendiste a tener miedo pero hay que correr el riesgo
          F        G       C   F C F
de levantarse y seguir cayendo.

B|---------------|
G|-/12-12-9-9-5--|
D|---------------|
                    C                    F         G
No hay nada que perder cuando ya nada queda en el vaso.
             C                        F         G
Y no podés saber que fuerte es el poder de un abrazo.
        Am        C             Dm           G       Am   C
Ya se fue el tren y esta calle nunca más será igual.
      Dm              G           F          E       Am  C
Aprendiste a tener miedo pero hay que correr el riesgo
         F          E     Am  C
de levantarse y seguir cayendo.
      F          E       Am    C           F          G      C
Pero hay que correr el riesgo de levantarse y seguir cayendo.
      Am    B7                                     Em
Yo lo sé que nadie te dijo para que todos están aquí.
    Am#    A7  Dm                              F         G
Yo sé la soledad te da un cierto confort, no te deja mirar.

            C F G          C                       F           G
Eterna soledad, eterna soledad... sé que la gente busca tu consejo.

e|----/15-15-15-15-12-12-------/15-15/17-15-12-8--|
B|-/13-------------------13-13--------------------|
G|------------------------------------------------|
F           E       Am   C        F         E      Am  C
Hay que correr el riesgo de levantarse y seguir cayendo.
e|---------------15-13-8--------------15/17-17-15-12-8--|
B|--8-8/10-10/13---------8-8/10-10/13-------------------|
G|------------------------------------------------------|
      F          E       Am            F          G     C
Pero hay que correr el riesgo de levantarse y seguir cayendo.
e|----------------------------------------------------------15-15-12-12-8--|
B|--8-8/10-10/13---------------------------------------5/13~---------------|
G|-------------------------------------------------------------------------|

10.	Ay Dolores

-> Intro : En Do Mayor con ritmo ranchero o-> tiempo a 3/4.


// -----> significa tocalo 2 veces.

C
El curso que toman las cosas,

                  G
a veces es inesperado,


y sin pensarlo siquiera,

                     C
te toca el dolar marcado,


brindemos con esta botella,

    C7            F
hasta bebernos el gusano,

   F
// brindemos campeon,

   C
brindemos chavon,

   G                C       C7
un toque y seguimos andando. //


  C
Venid contadme tu suerte,

                    G
tus penas, tus alegrias,


al cielo damos la gracias,

                           C
por las cosas lindas de la vida.


C
Que no nos falte el trabajo,

C7                    F
tampoco nos falte un tajo,

   F
// la buena salud,

   C
al norte y al sur,

   G               C      C7
venid y fumemos un caño. //

C
Ay, ay, ay, ay, ay,

            G
ay, ay, Dolores !,   ( ay, ay, ay )

                            C     C7
tus ojos son dos petalos de mas,

    F                            C
y si llega el día en que tu me traiciones,

G                    C      C7
la vida no podría soportar,

     F                            C
y si llega el día en que tu me abandones,

                   G          C
yo me iré con los mariachis a tocar.

***** ¿ Que te parece si ahora metemos ritmo de Guapango ? ********
***** Se esta poniendo chipocludo esto, ¿¿¿ no crees ???   ********

-> Ahora con ritmo Guapango.

-> El intro tambien en Do Mayor.

C
No todo es siempre dinero,

                    G
no compra los sentimientos,


a mis amigos los quiero,

                      C
en mi corazón yo los llevo.


C
Tampoco vale la pena,

      C7                 F
que el mundo tenga mas guerras,

    F
// la vida se va,

            C
no te esperará,

     G               C         C7
brindemos con esta botella. //


**** Mas chipocludo aún vamos con ritmo Rock y del pesado jeje ****

uno, dos, tres, cuatro,

C
Ay, ay, ay, ay, ay,

            G
ay, ay, Dolores !,

                            C     C7
tus ojos son dos petalos de mas,

    F                            C
y si llega el día en que tu me traiciones,

G                    C      C7
la vida no podría soportar,

     F                            C
y si llega el día en que tu me abandones,

                   G          C
yo me iré con los mariachis a tocar.


******* FINAL ********

    F                            C
y si llega el día en que tu me traiciones,

                   G          C
yo me iré con los mariachis a tocar.


11.	Cordillera


1/-------------------------------------------------------|
2/----10----10-10----10----10s8----8----8-8----8----8s10-|
3/--9-----9--------9-----9-------7----7------7----7------|
4/-------------------------------------------------------|
5/-------------------------------------------------------|
6/-------------------------------------------------------|

/-----------------------------------------------------|
/----10----10-10----10----10s8----8---8---------------|
/--9-----9--------9-----9-------7---7----10--9--7—-5--|
/-----------------------------------------------------|
/-----------------------------------------------------|
/-----------------------------------------------------|

/-------------------------------------------------------|
/----10----10-10----10----10s8----8----8-8----8----8s10-|
/--9-----9--------9-----9-------7----7------7----7------|
/-------------------------------------------------------|
/-------------------------------------------------------|
/-------------------------------------------------------|

/-----------------------------------------------------|
/----10----10-10----10----10s8---------8--------------|
/--9-----9--------9-----9-------7-7—7----10--9--7—-5--|
/-----------------------------------------------------|
/-----------------------------------------------------|
/-----------------------------------------------------|

Después viene esto:

1/---------8-7-5----------7-5-3----------5-3-----5-5-------------------|
2/--5-5-5--------5--5-5-5-------3—-3-3-3-----3s5------5------5---3-----|
3/------------------------------------------------------5---5------4---|
4/--------------------------------------------------------7----------6-|
5/---------------------------------------------------------------------|
6/---------------------------------------------------------------------|

/-----------12-10-8--------------10-8-7----------7s8-7-------------|
/--10-10-10---------10—-10-10-10--------8—-8-8-8-------8—-10s13-13-|
/------------------------------------------------------------------|
/------------------------------------------------------------------|
/------------------------------------------------------------------|
/------------------------------------------------------------------|

/--12-------12—-10--------------------|
/----13---13------12----12-13—-10-----|
/------14-----------13-------------1--|
/----------------------------------2--|
/----------------------------------2--|
/----------------------------------0--|


Am                 G
Quien te ha visto quien te ve
Am                 G
En la Cordillera de los Andes    aauuuumm
Am          G           Am      G
Nunca me dejas de sorprender

Am             G
Viento blanco que más da
Am                 G
que por mí pueden pasar las horas
Am               G             Am
quiero estar contigo un tiempo más  yeeaahh

1/---------8-7-5----------7-5-3-----------5s8—7--------------|
2/--5-5-5--------5--5-5-5-------3—-3-3-3---------8—10s13-13--|
3/-----------------------------------------------------------|
4/-----------------------------------------------------------|
5/-----------------------------------------------------------|
6/-----------------------------------------------------------|

/--12-------12—-10-----|
/----13---13------12---|
/------14-----------13-|
/----------------------|
/----------------------|
/----------------------|

Am            G          Am     G
Y asi podrán pasar los años
Am     G             Am       G
y yo tomar mil direcciones
Am          G              Am
Sé que he dejado un mundo atrás
           G          Am
siguiendo siempre un ideal
           G       F
como un valiente cazador
    G
de las estrellas

Am            G
se vive, la libertad
Am             G
se siente, la libertad
Am              G          Am         G
te envuelve, la magia del lugar

Am            G
se vive, la libertad
Am             G
se siente, la libertad
Am              G          Am         G
te envuelve, la magia del lugar

(solo):

1/------------7-8-7----------------------------------------------------------|
2/-------8-10-------8--------------------5-8-5-6~-5---5/6--5-----------------|
3/--/9~~--------------7\5-4/5\4----5-7-5-----—------7--------7-5-7/9\7-5—7~--|
4/------------------------------5~-------------------------------------------|
5/---------------------------------------------------------------------------|
6/---------------------------------------------------------------------------|

----------------|
---5------------|
—5---5-7-5/7~~--|
----------------|
----------------|
----------------|

--------------7-8-7---------7----------------10-12-13-12-10-12-13-|
---------8-10-------10-8-10---10~—--10-12-13----------------------|
--7-9-10----------------------------------------------------------|
------------------------------------------------------------------|
------------------------------------------------------------------|
------------------------------------------------------------------|

--15-13-12-13-15-17-17----13-12-13-12-------------|
--------------------------------------15-15b17~---|
--------------------------------------------------|
--------------------------------------------------|
--------------------------------------------------|
--------------------------------------------------|

--------------------------------------------------0---|
--13-12-13s15-13-12\10----10-10/12-10~--8---------0---|
-----------------------12-----------------10\9-7--1---|
--------------------------------------------------2---|
--------------------------------------------------2---|
--------------------------------------------------0---|


Am                 G
Quien te ha visto quien te ve
Am                      G
En la Cordillera de los Andes    aauuumm
Am         G             Am      G
Nunca me dejas de sorprender

Am             G
Viento blanco que más da
Am                          G
que por mí pueden pasar las horas
Am                   G                         Am                G
quiero estar aquí en Phoenix unos cuantos días más por lo menos


Am      G        Am   G
hay una nube pasajera
Am      G      Am       G
tocando los picos nevados
Am          G         Am
Sé que he dejado un mundo atras
Am         G           Am
siguiendo siempre un ideal
Am          G       F
como un valiente cazador
    G
de las estrellas

Am            G
se vive, la libertad
Am             G
se siente, la libertad
Am              G          Am      G
te envuelve, la magia del lugar

Am            G
se vive, la libertad
Am             G
se siente, la libertad
Am              G          Am      G
te envuelve, la magia del lugar

se vive...
se siente...
te envuelve, la magia del lugar

se vive...
se siente...
te envuelve, la magia del lugar

Am            G
se vive, la libertad
Am             G
se siente, la libertad
Am              G          Am      G
te envuelve, la magia del lugar

1/---------8-7-5----------7-5-3----------5-3-----5-5-------------------|
2/--5-5-5--------5--5-5-5-------3—-3-3-3-----3s5------5------5---3-----|
3/------------------------------------------------------5---5------4---|
4/--------------------------------------------------------7----------6-|
5/---------------------------------------------------------------------|
6/---------------------------------------------------------------------|

/-----------12-10-8--------------10-8-7----------7s8-7-------------|
/--10-10-10---------10—-10-10-10--------8—-8-8-8-------8—-10s13-13-|
/------------------------------------------------------------------|
/------------------------------------------------------------------|
/------------------------------------------------------------------|
/------------------------------------------------------------------|

/--12-------12—-10----------------|
/----13---13------12----12-13—-10-|
/------14-----------13------------|
/---------------------------------|
/---------------------------------|
/---------------------------------|
Acá termina y después vuelve a empezar:

1/-------------------------------------------------------|
2/----10----10-10----10----10s8----8----8-8----8----8s10-|
3/--9-----9--------9-----9-------7----7------7----7------|
4/-------------------------------------------------------|
5/-------------------------------------------------------|
6/-------------------------------------------------------|

/-----------------------------------------------------|
/----10----10-10----10----10s8----8---8---------------|
/--9-----9--------9-----9-------7---7----10--9--7—-5--|
/-----------------------------------------------------|
/-----------------------------------------------------|
/-----------------------------------------------------|

/-----------------------------------------------------------------|
/--------10-10----10-10----10----10s8------8-8----8-8----8---8s10-|
/--9-9-9--------9--------9-----9-------7-7-----7------7----7------|
/-----------------------------------------------------------------|
/-----------------------------------------------------------------|
/-----------------------------------------------------------------|

/---------------------------------------------------------------|
/--------10-10----10-10----10----10s8----8----8-----------------|
/--9-9-9--------9--------9-----9-------7----7----10-9-7---------|
/-------------------------------------------------------10------|
/---------------------------------------------------------------|
/---------------------------------------------------------------|

/--------------------------------------------------------|
/---------13-13-----13-13-----13-13-13-12---------12-12—-|
/--12-12---------12--------12--------------12-12---------|
/--------------------------------------------------------|
/--------------------------------------------------------|
/--------------------------------------------------------|

/--------------------------|
/----12-12-----12----12-13-|
/-12--------12----12-------|
/--------------------------|
/--------------------------|
/--------------------------|

/------------------------------------------------|
/---------13-13-13-----13-13-13-----13-13-13-12--|
/--12-12------------12-----------12--------------|
/------------------------------------------------|
/------------------------------------------------|
/------------------------------------------------|

/----------------------------------|
/--------12----13-12-10----10------|
/--12-12----12----------12---------|
/----------------------------------|
/----------------------------------|
/----------------------------------|

1/-------------------------------------------------------|
2/----10----10-10----10----10s8----8----8-8----8----8s10-|
3/--9-----9--------9-----9-------7----7------7----7------|
4/-------------------------------------------------------|
5/-------------------------------------------------------|
6/-------------------------------------------------------|
                                                           Am(x3)
/----------------------------------------------------------5---|
/----10----10-10----10----10s8----8---8--------------------5---|
/--9-----9--------9-----9-------7---7----10--9--7—-5-------5---|
/----------------------------------------------------------7---|
/----------------------------------------------------------7---|
/----------------------------------------------------------5---|

12.	Mejor no Hablemos de Amor

Bm,G x3 A

con wah

E--x-x-----------|
B--x-x-----------|
G--x-x-2h4-4-4---|
D--x-x-----------|
A--x-x-----------|
E--x-x-----------|

E,G,Bm.A   toda la cancion

solo 1:
E-------------------------------------------------------------|
B-10b12~-b12r10p7-10-10b12~--b12r10p7-------------------------|
G-------------------------------------9b10--b10r9p7---9---7---|
D---------------------------------------------------9---9-----|
A-------------------------------------------------------------|
E-------------------------------------------------------------|

E-------------10\9-10-9----------------------------------------------------------|
B-10/12----12-----------10------------10p=7-10/12-10~-12/14-12-14--15b17r15p12---|
G---------x----------------9\6-7-9-----------------------------------------------|
D--------x--------------------------7--------------------------------------------|
A-------x------------------------------------------------------------------------|
E--------------------------------------------------------------------------------|

E----------14-------------------------------------------------------|
B-14-15-17----15/17~-14-15-17b19~-b19r17p15\14----15p14-14h15-------|
G----------------------------------------------16-------------14~---|
D-------------------------------------------------------------------|
A-------------------------------------------------------------------|
E-------------------------------------------------------------------|

E------------9-10-12-10-9--------------------------------------------------|
B------10-12--------------12-10-12-10h12-10----------------------------0---|
G-9/11--------------------------------------11\9p7---9---7-9b11r9-7~---1---|
D--------------------------------------------------9---9---------------2---|
A----------------------------------------------------------------------2---|
E----------------------------------------------------------------------0---|

solo 2:

E--------9-9h10-----7-7/9-------------------9-9h10-----7-7/9-------------------|
B-10/12~--------10~---------------------12~--------10~-------------------------|
G-------------------------11~-7/9-7-6~-----------------------11~---9-6-7/18~---|
D------------------------------------------------------------------------------|
A------------------------------------------------------------------------------|
E------------------------------------------------------------------------------|

13.	Luz de Dia

Intro:  Am   G   F   C   G

                  Am              G
Destapa el champagne, apaga las luces
             Dm         F
dejemos las velas encendidas
     C          G
y afuera las heridas
               Am                G
ya no pienses mas en nuestro pasado
              Dm         F
hagamos que choquen nuestras copas
       C            G
por habernos encontrado

y porque
    C            G               Am
Puedo mirar el cielo, besar tus manos
            F               C
sentir tu cuerpo, decir tu nombre
         G               Am
y las caricias seran la brisa
              F
que aviva el fuego
           C   G            Am    F
de nuestro amor, de nuestro amor
  C               G                 Am
puedo ser luz de noche, ser luz de día
           F               C
frenar el mundo por un segundo
          G              Am
y las caricias seran la brisa
              F
que aviva el fuego
           C   G            Am    F
de nuestro amor, de nuestro amor

Solo: Am   G   F  C   G

             Am                 G
El tiempo dejó su huella imborrable
                   Dm         F
y aunque nuestras vidas son distintas
      C          G
esta noche todo vale
               Am                   G
tu piel y mi piel, ves que se reconocen
         Dm         F     C
es la memoria que hay en nuestros
     G
corazones, y porque...
    C            G               Am
Puedo mirar el cielo, besar tus manos
            F               C
sentir tu cuerpo, decir tu nombre
         G               Am
y las caricias seran la brisa
              F
que aviva el fuego
           C   G            Am    F
de nuestro amor, de nuestro amor
  C               G             Am
puedo ser luz de noche, luz de día
           F              C
frenar el mundo por un segundo
          G               Am
y que me digas cuanto querías
            F
que esto pasara
       C    G         Am    F
una vez mas, y otra vez mas, y porque
  C
Puedo mirar...

C        G      Am    F
sin tu amor no sé vivir
     C             G
porque sin tu amor
        Am      F
yo me voy a morir de pena...


Solo:

e-------12~~-12-13-15-13-12-13-12-8/-10--8~---|
B------------13-15-17-15-13-15-13-10/12--10---|
G-10/12---------------------------------------|
D---------------------------------------------|
A---------------------------------------------|
E---------------------------------------------|

e-3/7—8/10—8\7-7\5--5/7\3~~-------------|
B---------------------------8/10\5—5-3--|
G---------------------------------------|
D---------------------------------------|
A---------------------------------------|
E---------------------------------------|

e-12-12-13-15--13-12-8----8/10\8--10/12--|-12\7-7/10—10\5—5/7\3~---|
B----------------------10----------------|-------------------------|
G----------------------------------------|-------------------------|
D----------------------------------------|-------------------------|
A----------------------------------------|-------------------------|
E----------------------------------------|-------------------------|

14.	Guitarras Blancas ??

15.Lamento Boliviano

   Em   Bm   Am   B7
e---7----7----5----7---|
B---8----7----5----7---|
G---9----7----5----8---|
D---9----9----7----7---|
A---7----9----7----9---|
E---7----7----5----7---|

em, bm, am, em, B7

Toda la canicon

Solo 1:

E------------------------------------------------|
B------7-8-7----------7-8~-7---------------------|
G----9-------9-------7-------9-7-9/11\9----------|
D-/9-----------9~---9--------------------7/9\7---|
A------------------------------------------------|
E------------------------------------------------|

E-------------12---------------------------------------------------------|
B----------12----15b17r15p12---------------------------------------------|
G-14b16r14-------------------14b16r14p12--14=b16r14p13p12----14----12~---|
D---------------------------------------------------------14----14-------|
A------------------------------------------------------------------------|
E------------------------------------------------------------------------|

E-----------------------------|
B----------------------12~~---|
G-/11--12-14-/11-12-14--------|
D-----------------------------|
A-----------------------------|
E-----------------------------|

E----------12-------12----15----12-------------------------------------15-17-15h17~---|
B-------12----12-15----12----12----12----------------------------15-17----------------|
G-14b16-------------------------------14b16r14p12-14----12-14/16----------------------|
D----------------------------------------------------14-------------------------------|
A-------------------------------------------------------------------------------------|
E-------------------------------------------------------------------------------------|

E-17p15-17-17/19--15-17--------|
B-----------------------17~~---|
G------------------------------|
D------------------------------|
A------------------------------|
E------------------------------|

E----15-17-18-19-18-17--15-17-18-19-18-17--15-17-17b19r17p15-17---|
B-17--------------------------------------------------------------|
G-----------------------------------------------------------------|
D-----------------------------------------------------------------|
A-----------------------------------------------------------------|
E-----------------------------------------------------------------|

E-15\14------------------------------------------------12~~---|
B-------15-------------15\12---------------------------12~~---|
G----------14\11-12-----------14p12--14b16r14p12-------12~~---|
D-------------------12-----------------------------12---------|
A-------------------------------------------------------------|
E-------------------------------------------------------------|

OUTRO y solo 2:

E----------------------------------------------------|
B-8p7--------------------8p7-------------------------|
G-----9p7-9~---9---9-7~------9p7-9~-----9---9-7~-----|
D------------9---9------------------7-9---9----------|
A----------------------------------------------------|
E----------------------------------------------------|

E--------------------------------------------------|
B-------8-----------10------8p7--------------------|
G-----7---9~------9----11~------9-7-9~-----7h9-7---|
D-7h9--------9h11----------------------7-9---------|
A--------------------------------------------------|
E--------------------------------------------------|

E----------------------------------------------------|
B----------------8p-7---------------8p-7-------------|
G-5~--5-5/7-7----7-(7)--5~-5-7-7----7-(7)--5~--7-7---|
D-5~--5-5/7-7----7-(7)--5~-5-7-7----7-(7)--5~--7-7---|
A-3~--3-3/5-5-----------3~-3-5-5-----------3~--5-5---|
E-------------0------------------0-------------------|

E------------------------------------------|
B------------------------------------------|
G--------11-12-12/14~--12-11~--11\7-9-9~---|
D-----14-----------------------------------|
A-/14--------------------------------------|
E------------------------------------------|

E----------------------------------------|
B----------------------------------------|
G--------11-12-12/14~--12-11-12/16-16~~--|
D-----14---------------------------------|
A-/14------------------------------------|
E----------------------------------------|

E---------------------------------------------------------------------------|
B--------------------------------------12~-12\------------------12-10-8\7---|
G--------11-12-14~-14\--------11-12-14-----------------11-12-14-------------|
D-----14-------------------14-----------------------14----------------------|
A-/14------------------/14----------------------/14-------------------------|
E---------------------------------------------------------------------------|

E------------------------------------------------------------|
B-9/10-8\7---/7-7---/7-7---/7-7---/7-7---7-8-10-/7-----------|
G----------9------9------9------9------9-----------7---------|
D----------------------------------------------------9~-9~---|
A------------------------------------------------------------|
E------------------------------------------------------------|

E----------------------7-10-8-7----8-7------7-------------|
B---------7h8---7h8h10----------10-----10-8---10/11b12~---|
G---6-7-9-----9-------------------------------------------|
D-9-------------------------------------------------------|
A---------------------------------------------------------|
E---------------------------------------------------------|

E-7---------------------------------------------|
B---10-8-7-8-10-10/12~-12\10-8-8--7-8-10-8-7~---|
G-----------------------------------------------|
D-----------------------------------------------|
A-----------------------------------------------|
E-----------------------------------------------|

E----------------------------------------------------|
B-5-3-5/7~-3---------------------3-5-7~---10-10-10---|
G------------2--0-2b3r2p0----2/4--------9------------|
D-------------------------2~-------------------------|
A----------------------------------------------------|
E----------------------------------------------------|

E-----12-15p12-14p12-15p12-17p12-15p12-14p12-15p12-17p12-15p12-14p12-15p12-17p12-15p12-14p12---|
B-/15------------------------------------------------------------------------------------------|
G----------------------------------------------------------------------------------------------|
D----------------------------------------------------------------------------------------------|
A----------------------------------------------------------------------------------------------|
E----------------------------------------------------------------------------------------------|

E-15p12-17p12-15p12-14p12-15p12-17p12-15p12---|
B---------------------------------------------|
G---------------------------------------------|
D---------------------------------------------|
A---------------------------------------------|
E---------------------------------------------|

E---------------------------------------------------------------------------------------------|
B-15p12-15p12-17p12-15p12-17p12-15p12-17p12-15p12-17p12-15p12-17p12-15p12-17p12-15p12----12---|
G-------------------------------------------------------------------------------------15------|
D---------------------------------------------------------------------------------------------|
A---------------------------------------------------------------------------------------------|
E---------------------------------------------------------------------------------------------|

E------------------------------------------------------------------------------------------------|
B------------------------------------------------------------------------------------------------|
G-15-14p12----12-15-14p12----12h15p12----12h15p12----12h15p12----12h15p14p12----12h15p14p12------|
D----------15-------------15----------15----------15----------15-------------15--------------15--|
A------------------------------------------------------------------------------------------------|
E------------------------------------------------------------------------------------------------|

E-----------------------------------------------------------------------|
B-----------------------------------------------------------------------|
G-12h15p14p12-----12h15p14p12--------------------------------------12---|
D-------------15--------------15--12-------------------------12-14------|
A------------------------------------14-14\12p10----10-12/14------------|
E------------------------------------------------12---------------------|


E----------------------------15-17=b19r17p15----17----15-17-18-19-18-17-15-------|
B-------15-17-17b19r17p15--------------------17----17----------------------17~---|
G-14/16-------------------16-----------------------------------------------------|
D--------------------------------------------------------------------------------|
A--------------------------------------------------------------------------------|
E--------------------------------------------------------------------------------|

E-----------------15~----------15~----------15~----------15~----------15~----------15~---|
B-----15-17p15--------17p15--------17p15--------17p15--------17p15--------17p15----------|
G-/16----------16-----------16-----------16-----------16-----------16-----------16-------|
D----------------------------------------------------------------------------------------|
A----------------------------------------------------------------------------------------|
E----------------------------------------------------------------------------------------|

E----------15~---|
B-17p15----------|
G-------16-------|
D----------------|
A----------------|
E----------------|

E-15\14----14----14~----14-15-17-15-17--17-16-15--14----14-------------------------------|
B-------17----17-----17------------------------------17-----15-------10-------10---------|
G--------------------------------------------------------------16\14----12h14----14/16---|
D----------------------------------------------------------------------------------------|
A----------------------------------------------------------------------------------------|
E----------------------------------------------------------------------------------------|

E--------12----12\10--------10-------10-------10---------10-----9s10------|
B-15b17~----15--------12h14----12h14----12h14----12h14------14-------14---|
G-------------------------------------------------------------------------|
D-------------------------------------------------------------------------|
A-------------------------------------------------------------------------|
E-------------------------------------------------------------------------|

E-10-------------------------10-------------------------------------------10-----10h12------|
B----14p12p10--10---10h12h14----14---10--------------------------10h12h14----14--------14---|
G----------------------------------------14-14p12p11----11h12h14----------------------------|
D----------------------------------------------------14-------------------------------------|
A-------------------------------------------------------------------------------------------|
E-------------------------------------------------------------------------------------------|

E--/15-14-12-/17-15p14----14-15--17-19-19/21-19--21/22-21-24-24b26~---|
B----------------------17---------------------------------------------|
G---------------------------------------------------------------------|
D---------------------------------------------------------------------|
A---------------------------------------------------------------------|
E---------------------------------------------------------------------|

E-24-24b26~-24b26~-22-24-24b26-24=b26-24-24b26~-26r24-22-24~---|
B--------------------------------------------------------------|
G--------------------------------------------------------------|
D--------------------------------------------------------------|
A--------------------------------------------------------------|
E--------------------------------------------------------------|

E22----------------------------------------------------------------------------------------------|
B--24\22-20-22-22b24--22-20----20\19-20-19----19-------------------------------------------------|
G---------------------------21-------------21----19-------19--------------------------------19-21|
D---------------------------------------------------19h21----21\19p17-16--17-19----17-19/21------|
A-------------------------------------------------------------------------------19---------------|
E------------------------------------------------------------------------------------------------|

E-------19----------22-24-24b26-24-24b26~~~---------------|
B-20-------20-22/24---------------------------------------|
G----21--------------------------------------(3)/\/\/\/---|
D---------------------------------------------------------|
A---------------------------------------------------------|
E---------------------------------------------------------|

16.  El Extrano del Pelo Largo

E------------------------------|--------------------------------|------|
B--8---8p7~-----8-----7~-------|o-8---8p7~-----8-----7~--------o|------|
G--7---7--------7-----7~-----7-|--7---7--------7-----7~-----7---|-2~---|
D----0------0-0---0-0----7-9---|----0------0-0---0-0----7-9-----|-2~---|
A------------------------------|o------------------------------o|-0~---|
E------------------------------|--------------------------------|------|


E-----------------------0---3---5--------------------------|
B-8---8p7-----8-----7---0---3---5---7-8-7-8-7--------------|
G-7---7-------7-----7---1---4---6---7-7-7-7-7--[5]\----/---|
D---0-----0-0---0-0-----2---5---7------------------\--/----|
A-----------------------2---5---7-------------------\/-----|
E-----------------------0---3---5--------------------------|

E-----------------------0-----------------------------------------3-2-0-2---|
B-8---8p7-----8-----7---0-------------------------------------3---3---------|
G-7---7-------7-----7---1-------------2---2--0h2p0h2p0h2p0----2---2---------|
D---0-----0-0---0-0-----2---5---4--2--2-2------------------5--0---0---------|
A-----------------------2---3---2--2--0--------------------3----------------|
E-----------------------0----------0----------------------------------------|

E------------5--------------0----------------|
B--------5b7===r5-0---0---3---3--------------|
G-----4---------------1---2------5---2---2---|
D-4---4---------------2---0------5---2-2-2---|
A-4---2---------------2----------3---0---0---|
E-2-------------------0----------------------|


E-----------------------0---3---5--------------------------|
B-8---8p7-----8-----7---0---3---5---7-8-7-8-7--------------|
G-7---7-------7-----7---1---4---6---7-7-7-7-7--[5]\----/---|
D---0-----0-0---0-0-----2---5---7------------------\--/----|
A-----------------------2---5---7-------------------\/-----|
E-----------------------0---3---5--------------------------|

Solo: Wah-Wah

E-------------------------------------------------------------------------------|
B----------13b15~~-b15r13-10----13b15~----10h12h13p10----10h13p10----10h13p10---|
G-[5]/\/---------------------12--------12-------------12----------12------------|
D-------------------------------------------------------------------------------|
A-------------------------------------------------------------------------------|
E-------------------------------------------------------------------------------|

E----------------------------------------------------|
B----10h13p10----10h13p10----------------------------|
G-12----------12----------13-12p11p10----12----10~---|
D-------------------------------------12----12-------|
A----------------------------------------------------|
E----------------------------------------------------|

E-----------------------------13bb15---13---------------------------------|
B-------13-15-15b17r15p13--15------------15-13-----------------------11---|
G-12/14----------------------------------------14-14p13\10--12----10------|
D--------------------------------------------------------------12---------|
A-------------------------------------------------------------------------|
E-------------------------------------------------------------------------|


E----------------------------------------------------------------------|
B-10h-13p12p10----12p10----10------------------------------------------|
G--------------13-------13----13p12p10----12----10\5~~-------------7---|
D--------------------------------------12----12--------7\5-3-5-3/5-----|
A----------------------------------------------------------------------|
E----------------------------------------------------------------------|

E------------------------------20b22--20b22~~--------10-------10-------10-------10---------------|
B-/13--x ?------/20--x ?-----------------------------10-------10-------10----------10-----10--10-|
G-/14-----------/21--------------------------12b14------12b14----12b14----12b14----12b14-b14-b14-|
D------------------------------------------------------------------------------------------------|
A------------------------------------------------------------------------------------------------|
E------------------------------------------------------------------------------------------------|


E------------------------|
B-7--8-------------------|
G-7--7--x-?-11p7p0 x-?---|
D------------------------|
A------------------------|
E------------------------|
Tap to rate this tab
# A B C D E F G H I J K L M N O P Q R S T U V W X Y Z