Song name
# A B C D E F G H I J K L M N O P Q R S T U V W X Y Z

Enanitos Verdes - Mary Sue tab

                                          \
                                           \
1|----------------------------------------  \   
2|----------------------------------------   |
3|----------------------------------------   |
4|-----1-0---------0---------2-0----------   |
5|----0-4-4-2-0-2-4-2-4-2---0-4-4-2-0-----   |
6|-0h2-------------------0h2---------0----   |
                                             |----2
1|----------------------------------------   |
2|----------------------------------------   |
3|----------------------------------------   |
4|-----1-0---------0---------2-0----------   |
5|----0-4-4-2-0-2-4-2-4-2---0-4-4-2-0-----   |
6|-0h2-------------------0h2---------0h2--   |
                                            /
                                           /
                                          /
Tap to rate this tab
 
# A B C D E F G H I J K L M N O P Q R S T U V W X Y Z