Song name
# A B C D E F G H I J K L M N O P Q R S T U V W X Y Z

Enanitos Verdes - Lamento Boliviano Acoustic tab

Enanitos Verdes - Lamento Boliviano acustica
Andres Fuenzalida


Acordes:

    Em  Bm   Am    B7
e---7----7----5----7---|
B---8----7----5----7---|
G---9----7----5----8---|
D---9----9----7----7---|
A---7----9----7----9---|
E---7----7----7----7---|

Em                                       
Me quieren agitar, me incitan a gritar... 
Bm
soy como una roca, palabras no me tocan
Am                                                 
Adentro hay un volcán, que pronto va a estallar... 
Em                     B7
yo quiero estar tranquilo



Em                                  
Es mi situación, una desolación... 
Bm
soy como un lamento, lamento boliviano
Am
Que un día empezó y no va a terminar... 
Em                 B7
y a nadie hace daño


Em      Bm       Am       Em    B7                                      
uohh... io io... ehehé..  ieehh  


              Em               Bm               Am             Em             B7
Y hoy estoy aqui... borracho y loco... y mi corazon idiota... siempre brillara
Em                            Bm                Am
y yo te amare... te amare por siempre.... nena no te peines en la cama...
                   Em         B7
que los viajantes se van a trasar.


Solo:

   MIm                       SIm                      LAM
e-----------------|---2h3p2---------------------|-----------12--10^--10------------|
B--0-5-7-8-7-5----|--3------5h3-5/7-------------|----9--9h10------------10-8--10v--|
G--------------4--|-4----------------4v-2h4p2v--|----------------------------------|
D-----------------|-----------------------------|----------------------------------|
A-----------------|-----------------------------|----------------------------------|
E-----------------|-----------------------------|----------------------------------|

        SIm             SI7               MIm
e--11h-9h-7p-9-------------------|-12h14-15^--15-14-12--15-14-12--15-14-12---|
B---------------12-11-12^--------|-------------------------------------------|
G-------------------------12-11--|-------------------------------------------|
D--------------------------------|-------------------------------------------|
A--------------------------------|-------------------------------------------|
E--------------------------------|-------------------------------------------|

  MIm                 SIm                                      LAm                SI7
e-----------------|---------------------------------|-------14-14h15-14-16--|14/15-----|
B--10-12-10/9h10--|------10h11-10h11--12h11/10------|-----------------------|------14--|
G-----------------|-9h10-----------------------12v--|--12h14----------------|----------|
D-----------------|---------------------------------|-----------------------|----------|
A-----------------|---------------------------------|-----------------------|----------|
E-----------------|---------------------------------|-----------------------|----------|

              Si7
e--12/13----12/13-------------------|
B--------12-------10-12^--10--------|
G----------------------------12-10--|
D-----------------------------------|
A-----------------------------------|
E-----------------------------------|


Em      Bm       Am       Em    B7                                      
uohh... io io... ehehé..  ieehh  


              Em               Bm               Am             Em             B7
Y hoy estoy aqui... borracho y loco... y mi corazon idiota... siempre brillara
Em                            Bm                Am
y yo te amare... te amare por siempre.... nena no te peines en la cama...
                   Em         B7
que los viajantes se van a trasar.

              Em               Bm               Am             Em             B7
Y hoy estoy aqui... borracho y loco... y mi corazon idiota... siempre brillara
Em                            Bm                Am
y yo te amare... te amare por siempre.... nena no te peines en la cama...
                   Em         B7
que los viajantes se van a trasar.


e----------------------------------------------------------------------|
B--7h8-7-----------------7h8-7-----------------------------------------|
G--------9-7-9v----------------9-7-9v-----------------5----------7-----|
D----------------9-9-0----------------9-9-0---------5---7v-----7---9v--|
A----------------7-7-0-9--------------7-7-0-9---5h7--------7h9---------|
E----------------------7--------------------7--------------------------|

e--------------7-7-0--12---|
B--8-7---------8-8-0--12---|
G------9-7-9v--9-9-0--12---|
D--------------9-9-0-------|
A--------------7-7-0-------|
E--------------7-7-0-------|
Tap to rate this tab
# A B C D E F G H I J K L M N O P Q R S T U V W X Y Z