Song name
# A B C D E F G H I J K L M N O P Q R S T U V W X Y Z

Enanitos Verdes - Cada Vez Que Digo Adios tab

INTRO:


e|-----------------------------------------------------0-0----|
B|------------------------0-1-1-0-1-3-1--0-1-1--0-0-3-3---3-3-|
G|--4-2-0-0-0---4-2-0-0-0-------------------------------------|
D|-0-----4-----0-----4----------------------------------------|
A|------------------------------------------------------------|
E|------------------------------------------------------------|



G
Nena no te pongas mal

Em
sabes que esto cambiará

Am
yo luché tanto tiempo

C                  D
por lograr lo que ahora tengo

G
Es muy grande la ciudad

Em
si no estas bien convencido

Am
que quieres llegar bien alto

C               D
aunque sea duro el camino

CORO:

   C                  F
Y tenes que dejar a la gente que amas
    Bm                        F          Em
y a ella que te mira con tristeza y alegria
      Am               C        Bm
y te dice que te vaya bien mi amor
         Em    Am               D
yo te espero, siempre te esperare

e|-----------------------------------------------------0-0----|
B|------------------------0-1-1-0-1-3-1--0-1-1--0-0-3-3---3-3-|
G|--4-2-0-0-0---4-2-0-0-0-------------------------------------|
D|-0-----4-----0-----4----------------------------------------|
A|------------------------------------------------------------|
E|------------------------------------------------------------|

 G
Por favor no tengas miedo
 Em
vos me vas a sostener
   C
y cuando todo sea adverso
    Am                   D
pensando en vos voy a estar muy bien


   G
Para cargar sobre mis hombros
  Em
a este mundo que al fin
 C
reza por la envidia y el odio
 Am                       D
de la gente que no puede ser feliz


     C                  F
Y tenes que dejar a la gente que amas
    Bm                        F          Em
y a ella que te mira con tristeza y alegria
      Am               C        Bm
y te dice que te vaya bien mi amor
         Em    Am               D
yo te espero, siempre te esperare

SOLO:

e|--------------------------------10-8-7-8-7---------------------------|
B|-10h12--12-10/8--10h12-12-12-12------------8-8-10h12-10--8h10p8------|
G|---------------------------------------------------------------------|
D|---------------------------------------------------------------------|
A|---------------------------------------------------------------------|
E|---------------------------------------------------------------------|

e|---10-8-7-8-7----10-8-7-8-7-------------------------------------------|
B|-------------------------------------------15-13-12--13h12------------|
G|-9-------------9-------------9h12--14/16~~-----------------12---------|
D|----------------------------------------------------------------------|
A|----------------------------------------------------------------------|
E|----------------------------------------------------------------------|

e|--------------------------------------10----------------------------------|
B|--------------------------------11h12---12^--8-10^--8-8---13h15v---15-13--|
G|------------------7-9-11-9-11-9-------------------------------------------|
D|---10h12p10--9--9---------------------------------------------------------|
A|12------------------------------------------------------------------------|
E|--------------------------------------------------------------------------|

|---------------------------15h17-15----17/19-17-19-17-19-17--|
|-----------15h17--15----------------15-----------------------|
|-14--12h14-----------14--------------------------------------|
|-------------------------------------------------------------|
|-------------------------------------------------------------|
|-------------------------------------------------------------|


 C                  F
Tengo que pensar en otra cosa
    Bm                 F   Em
es hora de caminar al rumbo
    Am                 Cm
el mundo esta girando locamente
   Bm                       Em
y yo ya estoy cansado de estar tan cuerdo
Am       D
oh, mi amor


     C                  F
Y tenes que dejar a la gente que amas
    Bm                        F          Em
y a ella que te mira con tristeza y alegria
      Am               C        Bm
y te dice que te vaya bien mi amor
         Em    Am               D
yo te espero, siempre te esperare


e|-----------------------------------------------------0-0----|
B|------------------------0-1-1-0-1-3-1--0-1-1--0-0-3-3---3-3-|
G|--4-2-0-0-0---4-2-0-0-0-------------------------------------|X4
D|-0-----4-----0-----4----------------------------------------|
A|------------------------------------------------------------|
E|------------------------------------------------------------|

   C   G
e|-0---3--|
B|-1---3--|
G|-0-0-0--|
D|-2-0-0--|
A|-3---2--|
E|-----3--|
Tap to rate this tab
# A B C D E F G H I J K L M N O P Q R S T U V W X Y Z