Song name
# A B C D E F G H I J K L M N O P Q R S T U V W X Y Z

Enanitos Verdes - Tequila En Vivo tab

Heres my take on this masterpiece. its not 100% but id say its pretty damn accurate. any 
send them to guillermo10139@yahoo.com. thanks and keep the music alive!!

(Intro)
                              X3
-|------------------------------|--------------3~---|
-|o-----1-----1-----3---3---1--o|-----1-----1--3~---|
-|----2-----2-----0-------------|---2-----2----0~---|
-|--2-----2-----0-----0---------|-2-----2------0~---|
-|o-0-----3-----2---------3----o|-0-----3------2~---|
-|--------------3---------------|--------------3~---|

Solo 1 (1:29):
 sb= slow bend                                                    w/bar

-----------8-10-11\10sb--10br=p8----8---------8---------------------------|
-8sb~~-/10-----------------------10---10br~-10-10-------------------------|
--------------------------------------------------9-8-7-5-7/9-7~~/\/\/----|
--------------------------------------------------------------------------|
--------------------------------------------------------------------------|
--------------------------------------------------------------------------|

Outro (3:27): w/wah

                                                w/bar
-|-----------------------------|-----5-----------------------------------------
-|o---------------------------o|-8bb---5---------------------------------------
-|-----5---5~-----------7-5~---|---------7p5-7b~/\/\--14b-14b-14b-14brp12-14~--
-|--7~---7-----7-5~~~-5--------|-----------------------------------------------
-|o---------------------------o|-----------------------------------------------
-|-----------------------------|-----------------------------------------------

------------------------------------------------------------------------------
-------------------------------------------------------------------17-20b~----
-------------------------------------17~----------17-19~--17h19-19------------
-17h19-19-19-17h19-19-19-17h19-19-19-----17h19-19-----------------------------
------------------------------------------------------------------------------
------------------------------------------------------------------------------

-17---------------------------------------------------------17-20b~-17----------------
----20-17------------------------------------17-17~------17------------17-20p17-20b~--
----------19brp17----19----17~-----------/19---------/18------------------------------
------------------19----19-----19p17-19-----------------------------------------------
--------------------------------------------------------------------------------------
--------------------------------------------------------------------------------------

 						       		  N.H natural harmonics

-------------------------------------------------------------------------(7)------------
-20p17-20b-17~-----17-------------------------------------------------(7)---(7)---------
---------------/19----19-17-19-19b-17~--17h19p17\16-14h16--12/14~~/\/----------(7)-(5)--
----------------------------------------------------------------------------------------
----------------------------------------------------------------------------------------
----------------------------------------------------------------------------------------
                                                                   w/bar

-------------------
-------------------
-(5)--dive bomb----
-------------------
-------------------
-------------------


{ Am, C, G, D, C) X 2

Am    C      G    D,C
Me pase la noche,
Am    C      G    D,C
bebiendo tequila,
Am    C      G
todo porque vos,
D    C    Am    C    G   D,C
ya no me quierias.

Am    C      G     D,C
Me puse bien loco,
Am    C      G     D,C
de que no venias,
Am    C      G
pude controlar
D    C    Am    C    G   D,
mi instinto suicida.

(A continuación sigue el coro,
 se puede hacer igual que antes
 solo que en la versión original,
 se hace con los acordes de poder)

  Am    C      G     D,C
Nací para sufrir,
    Am    C      G     D,C
por tu amor maldito,
Am    C      G     D,C
comenzo en la gloria,
  Am    C      G     D,C
hoy es un castigo.

  Am    C      G     D,C
Nací para seguir,
     Am    C      G     D,C
la estrella del camino,
  Am    C      G     D,C
siempre me abandona,
  Am    C      G     D,C
se pierde en el rio.


Am    C      G     D,C
Me pase la noche,
Am    C      G     D,C
esperando el dia,
Am    C      G     D,C
esperando el dia,
Am    C      G     D,C
bebiendo tequila.

 Am    C      G     D,C
Me puse bien loco,
Am    C      G     D,C
encendi un pinito,
Am    C      G     D,C
que se fue quemando
Am    C      G     D,C
solito solito

(coro)
Am    C      G     D,C
Nací para sufrir,
Am    C      G     D,C
por tu amor maldito,
Am    C      G     D,C
comenzo en la gloria,
Am    C      G     D,C
hoy es un castigo.

Am    C      G     D,C
Nací para subir,
Am    C      G     D,C
la cuesta de la vida,
Am    C      G     D,C
y que nunca acabe,
 Am    C      G     D,C
la tequila.

(A continuación viene un cambio)
Bm         G
Donde estas ?,
      Bm         G
te llamo y no me respondes,
Bm         G
oh! mi amor
          C
donde estas ?.
          C
donde estas ?.
          C ...remate.
donde estas ?.

(Coro)
Am    C      G     D,C
Nací para sufrir,
Am    C      G     D,C
por tu amor maldito,
Am    C      G     D,C
comenzo en la gloria,
 Am    C      G     D,C
hoy es un delito.

Am    C      G     D,C
Nací para subir,
Am    C      G     D,C
la cuesta de la vida,
Am    C      G     D,C
y que nunca acabe,
 Am    C      G     D,C
la tequila.
Tap to rate this tab
 
# A B C D E F G H I J K L M N O P Q R S T U V W X Y Z