Song name
# A B C D E F G H I J K L M N O P Q R S T U V W X Y Z

Enanitos Verdes - Mi Primer Dia Sin Ti En Vivo tab

Help us improve GuitareTab! Take a short survey!
Well heres "Mi Pimer Dia Sin" en Vivo. Beautiful song which i dedicate to a beautiful 
Angie this for you. Hope you guys enjoy it.


|--------0----------------4------------------2--------------------|
|o----2----2---2-----5-----5---5p4------3-----3---3p2--0--0-------|
|------2----2---2-----6-----6------6-----4-----4-----2-1--2--4~---|
|----2-------2-----6----6-----6-------4----4-----4-----2--2-------|
|o--0-------------4------------------2-----------------2--2--2~---|
|-----------------------------------------------------------------|

-----------------------------7/9\7---2/4\2--------2-------------------|
---2--------------------5--------------------3-----3--3p2---0--0-----o|
----2--6-8-8/9--9p8------6---9/11\9--4/6\4----4-----4----4--1--2--4~--|
--2--2--------------9--6--6-----------------4--4-----4------2--2------|
-0--------------------4--------------------2----------------2--2--2~-o|
----------------------------------------------------------------------|

            F#m
   Que pronto te marcharias
           C#m
   sin ninguna explicacion,
           D
   quizas te parezca facil
          Bm                E
   que soporte este dolor, uuuh!

   X3
-|------------------|------------------------------------------------------------|
-|o---------5/7-5~-o|-----------------------5/7-5~---------7sb~---------5/7-5~---|
-|--4/6-4-----------|-4/6--7-6-4~---4/6-4----------4/6-4--------4/6-4------------|
-|--------7---------|---------------------7--------------7------------7----------|
-|o----------------o|------------------------------------------------------------|
-|------------------|------------------------------------------------------------|

----------------------|
----------------------|
-4/6-7-6-4~-----------|
------------/6~-------|
----------------7~~---|
----------------------|

         A
A) Olvidaste algunas cosas
         C#m
   en tu rapido partir
         Bm
   y ahora son como tesoros
         E
   que conservo para mi


A) Nunca me dijiste nada
   acerca de tu pasion
   seducir hasta ganarlo
   y despues decir adios.

         F#m
B) Sabes que te marcharias
         C#m
   sin ninguna explicacion
         D
   quizas te parezca facil
         Bm
   que soporte este dolor
         E
   que carge con tu dolor


                    A   C#m    F#m
C) Porque este es mi primer dia sin verte
                D   Bm     E
   este es mi primer dia sin ti
                A       C#m   F#m
   y la habitacion se me hace gigante
                     D      Bm        E
   me siento tan pequeno si no estas aqui,
                     A - C#m - Bm - E
   no lo puedo entender...

Solo:
     x2
-|------------------|--------------------------------------------------|
-|o---------5/7-5~-o|-----------------------5/7-5~--7/9-9-10p9-12b14~~-|
-|--4/6-4-----------|-4/6--7-6-4~---4/6-4------------------------------|
-|--------7---------|---------------------7----------------------------|
-|o----------------o|--------------------------------------------------|
-|------------------|--------------------------------------------------|

---------------------------------------------------|
-12b14r12b14r12p10\9-12~--12p10\9\7\5h7/9p7~--5~~--|
---------------------------------------------------|
---------------------------------------------------|
---------------------------------------------------|
---------------------------------------------------|

A) Cuando termino el verano
   todo parecia bien
   pero no me daba cuenta
   yo confiaba sin saber
A) Nunca...

B) Sabes...

C) Porque este es... (bis)
   no lo puedonentender

Outro:

---------------------------14-----------------------------------------------------|
------------------------------14-17b19~--17b19r17p14-17b19~---17b19r17p14---------|
-6 tremolo w/wah-------/16------------------------------------------------16sb~---|
----------------------------------------------------------------------------------|
----------------------------------------------------------------------------------|
----------------------------------------------------------------------------------|

|-----------------------------------------------------|----------------------------|
|o-14-17-17b19~-17b19r19p14-17b19~--17b19r17p14------o|----------------------------|
|-----------------------------------------------16sb~-|-16p14-16----14-16b~/\/\/---|
|-----------------------------------------------------|----------16----------------|
|o---------------------------------------------------o|----------------------------|
|-----------------------------------------------------|----------------------------|

-------------------------------------------|
-------------------------------------------|
-16p14----16-14h16-14~---/9--7--6----------|
-------16--------------------------7~~~~---|
-------------------------------------------|
-------------------------------------------|

------------------------------------------------------------------------|
----10---------------------------------10-------------------------------|
-/9----9-9/12~--11-9-7-9/11-9~~~----/9----9-9/12~--11-9-7-7/9~~\2~~~----|
------------------------------------------------------------------------|
------------------------------------------------------------------------|
------------------------------------------------------------------------|


----------------------------------------------------|
----10----------------------------------------------|
-/9----9-9/12~--11-9-7-9/11-12~--11-9-7-9/11-9~~~---|
----------------------------------------------------|
----------------------------------------------------|
----------------------------------------------------|

                                       T         T         T
---------------------------------------------------------------------------------|
-10-12-14-14b~~--12-10-12~--10~~=h12--14-12p10--14-12p10--14-12p10--many times---|
---------------------------------------------------------------------------------|
---------------------------------------------------------------------------------|
---------------------------------------------------------------------------------|
---------------------------------------------------------------------------------|

T      T     T     T     T     T     T     T    T    T    T    T    T
15-12-15-14-15-14-15-12-15-14-15-14-15-10-15-9-15-7-15-5-15-4-15-5-15-7----|
---------------------------------------------------------------------------|
---------------------------------------------------------------------------|
---------------------------------------------------------------------------|
---------------------------------------------------------------------------|
---------------------------------------------------------------------------|

 T    T    T    T    T    T    T    T    T    T    T      T    T
-15-5-15-4-15-2-15-4-15-5-15-4-15-2-15-0-15-2-15-4-15-4h5-15-4-15-2h4-5/7~~---|
------------------------------------------------------------------------------|
------------------------------------------------------------------------------|
------------------------------------------------------------------------------|
------------------------------------------------------------------------------|
------------------------------------------------------------------------------|
Related for Mi Primer Dia Sin Ti En Vivo tab