Song name
# A B C D E F G H I J K L M N O P Q R S T U V W X Y Z

Enanitos Verdes - Amores Lejanos tab

                                           HEROES DEL SILENCIO
Tablatura:
Miguel Alejandro Díaz Palmerín
México

esta es la tablatura de la carta, espero que les guste, la saque lo mas parecido 
digamos que
igualita. cualquier comentario o si quieren alguna tablatura de heroes en especial escribanme.
ya subi la de Sirena varada y la de la Chispa adecuada.
midipal@df1.telmex.net.mx


Intro:
|----------------------------|--12----------12---------13---------12-----------|
|----------------------------|------10----------10---------10---------10-------|
|----------------------------|----------9-----------9----------9---------------|
|----------------------------|-------------------------------------------------|
|-0--0--0--0-----0--0--0-----|-------------------------------------------------|
|----------------------------|-------------------------------------------------|

Riff 1

  Am               F                C               Em                 Am
|----------------|---------------|----------------|-----------7-----|-----------------------|
|-------5-----5--|-------6-----5-|-------5--------|---------------8-|------5-----5----------|
|-----5----5-----|----5-----5----|----5-----5-----|--------9--------|----5----5-------------|
|----------------|---------------|-------------7--|-----9-----------|-----------------------|
|----------------|-8-------------|----------------|--7--------------|-----------------------|
|--5-------------|---------------|--8-------------|-----------------|--5--------------------|

                                         End Riff 1
  F                C               Em
|----------------|---------------|----------------|
|------6-----5---|-------5-------|-----------8--7-|
|---5-----5------|----5-----5----|--------9-------|
|----------------|-------------7-|-----9----------|
|-8--------------|---------------|--7-------------|
|----------------|--8------------|----------------|


Verse 1

 Am        F            C     Em
   No hace mucho que lei tu carta,
           Am   F          C
 y, sin fuerzas para contestar,
        Em                    Am
 mil pedazos al viento nos separan.
        F           C
 pondre casa en un pais
     Em      Am
 lejano para olvidar
 F                C    Em             With Riff 1
 este miedo hacia ti, este miedo hacia ti.

Verse 2

 Am         F          C
 y no hace mucho que rompi
        Em       Am
 tu recuerdo pensando
  F      c         Em
 acabar de una vez.
 Am        F             C
 pero el tiempo y la distancia
          Em       Am
 no son todo para mi
            F       C   Em
 siempre hay algo que me hace volver.


Chorus
   F             Em             Am                      F             G
  siempre he escuchado, y ya no te creo     ¿porque no te entiendo?   ¿porque estas

|-1-------------|-0-----------|--0-------------------|--1-----------|-3-------------|
|-1-------------|-0-----------|--1-------------------|--1-----------|-4-------------|
|-2-------------|-0-----------|--2-------------------|--2-----------|-5-------------|
|-3-------------|-2-----------|--2-------------------|--3-----------|-5-------------|
|-3-------------|-2-----------|--0-------------------|--3-----------|-3-------------|
|-1-------------|-0-----------|--0-------------------|--1-----------|-3-------------|

  Em
  tan lejos ?  uuh--- uh--  uh------

|---------2---------3--------2-------|
|----5------5----5-----5--------5----|
|-------4------4----------4--------4-|
|--2---------------------------------|
|------------------------------------|
|------------------------------------|

   F             Em             Am                      F             G
  siempre he escuchado, y ya no te creo     ¿porque no te entiendo?   ¿porque estas

|-1-------------|-0-----------|--0-------------------|--1----1------|-3-----3-------|
|-1-------------|-0-----------|--1-------------------|--1------1----|-4--------4----|
|-2-------------|-0-----------|--2-------------------|--2--2-----2--|-5--5--------5-|
|-3-------------|-2-----------|--2-------------------|--3-----------|-5-------------|
|-3-------------|-2-----------|--0-------------------|--3-----------|-3-------------|
|-1-------------|-0-----------|--0-------------------|--1-----------|-3-------------|

  Em
  tan lejos   uuh--- uh--  uh------

|---------2---------3--------2-------|
|----5------5----5-----5--------5----|
|-------4------4----------4--------4-|
|--2---------------------------------|
|------------------------------------|
|------------------------------------|   With Riff 1


Verse 3

 Am        F             C
 se que siempre he sido asi
          Em         Am
 y que no tengo remedio,
 F          C      Em
 ni lo quiero tener.
 Am           F          C
 pero ni el miedo ni tu cartas
         Em        Am
 lo son todo para mi
        F     C          Em
 quizas otra vez te echare la culpa a ti.


Chorus


  Am               F                C               Em                 Am
|----------------|---------------|----------------|-----------7-----|-----------------------|
|-------5-----5--|-------6-----5-|-------5--------|---------------8-|------5-----5----------|
|-----5----5-----|----5-----5----|----5-----5-----|--------9--------|----5----5-------------|
|----------------|---------------|-------------7--|-----9-----------|-----------------------|
|----------------|-8-------------|----------------|--7--------------|-----------------------|
|--5-------------|---------------|--8-------------|-----------------|--5--------------------|


  F                C               Em                 Am              F
|----------------|-----------------|--------------7-|---------------|-----------------------|
|------------5---|-----------10----|-----------8----|-------5-----5-|--------------5--------|
|---5--7--5------|-------10-----10-|--------9-------|----5-----5----|----5--7---5-----------|
|----------------|----10-----------|-----9----------|---------------|-----------------------|
|-8--------------|-----------------|--7-------------|---------------|-8---------------------|
|----------------|--8--------------|----------------|-5-------------|-----------------------|


  C                   Em           Am               C            F#m          F
|---------------8--|----------7--|----------------|------------|------------|---------------|
|-----------10-----|--------8----|--------5-------|-----5------|------5-----|-----5-/6-/5---|
|-------10---------|------9------|-----5-----5----|---5---5----|----5---5---|---5-----------|
|----10------------|----9--------|--------------7-|-5--------5-|--4-------4-|-3-------------|
|------------------|--7----------|----------------|------------|------------|---------------|
|-8----------------|-------------|--5-------------|------------|------------|---------------|


  Am

|-5---|
|-5---|
|-5---|
|-7---|
|-7---|
|-5---|
Tap to rate this tab
# A B C D E F G H I J K L M N O P Q R S T U V W X Y Z