Song name
# A B C D E F G H I J K L M N O P Q R S T U V W X Y Z

Enanitos Verdes - Mil Horas Live tab

Help us improve GuitareTab! Take a short survey!
This is Mil Horas by Enanitos Verdes en Vivo. The only thing i tabbed out was the solo 
if you feel something might sound a little off, wrong please post it).
Tabbed by Jose Villarreal


      C#7,D#7,G#m….C#7,D#7  


Main Riff 2X:
                                    
 e----------------------|
 b--4--6-6/7-7--6--4~~--|
 g----------------------|
 d----------------------|
 a----------------------|
 e----------------------|


 e---4--6-6/7-7--6--|
 b------------------|
 g------------------|
 d------------------|
 a------------------|
 e------------------|

 e------4--4/6--6--4--|
 b--7-----------------|
 g--------------------|
 d--------------------|
 a--------------------|
 e--------------------|         	


C#m7    D#m7         G#m
Hace frío y estoy lejos de casa,
      C#m7               D#m7             G#m
hace tiempo que estoy sentado sobre esta piedra,
         C#m7       D#m7           G#m
yo me pregunto para que sirven las guerras


e----------------------------|
b----------------------------|
g----------------------------|  RIFF 2   4X
d----------------------------|
a--4~~--2-4--2-----------2---|
e--------------4---2-4-------|

					
Tengo un cohete en el pantalón,

y vos estas tan fría,

como la nieve a mi alrededor,

vos estas tan blanca,
           E            <--- Enter here
que yo no se que hacer

G#m                                        C#m7
La otra noche te espere bajo la lluvia dos horas,
     D#m7           E    F#m
mil horas, como un perro,
G#m                                        C#m7
y cuando llegaste me miraste y me dijiste Loco,
        D#m7             E
estas mojado, ya no te quiero  a…a...a

Intro X2

       C#m7      D#m7         G#m                             e--------4~~--- 
Y en el circo vos ya sos una estrella,                        B--------------
        C#m7          D#m7          G#m                       G--4h6p4-------
una estrella roja que todos se la imagina,  se lo alucina
          C#m7
si te preguntan,
     D#m7     G#m
vos no me conocías, no, no

RIFF 2	4x





Tengo un cohete en el pantalón,

y vos estas tan fría,

como la nieve a mi alrededor,

vos estas tan blanca,
           E             <--- Enter here
que yo no se que hacer

G#m                                        C#m7
La otra noche te espere bajo la lluvia dos horas,
     D#m7           E   F#m
mil horas, como un perro,
G#m                                        C#m7
y cuando llegaste me miraste y me dijiste Loco,
        D#m7             E
estas mojado, ya no te quiero  aaaaaaaayeah….

Solo:

----------------------------------------------------------------|
-7p6-------6-7p6-------6-7p6-------6-7p6-------6-7p6-------6-7--|
-----8-6-8-------8-6-8-------8-6-8-------8-6-8-------8-6-8------|
----------------------------------------------------------------|
----------------------------------------------------------------|
----------------------------------------------------------------|


-6-9p6-------6-9p6-------6-9p6----|
-------9-7-9-------9-7-9-------9--|
----------------------------------|
----------------------------------|
----------------------------------|
----------------------------------|

-4-6p4-------4-6p4-------4-6p4----|
-------7-4-7-------7-4-7-------7--|
----------------------------------|
----------------------------------|
----------------------------------|
----------------------------------|

----------------------------------------------------------------------------|
-6h7p6-------6-7p6-------6-7p6-------6-7p6-------6-7p6-------6-7p6----------|
-------8-6-8-------8-6-8-------8-6-8-------8-6-8-------8-6-8-------8p6h8p6--|
----------------------------------------------------------------------------|
----------------------------------------------------------------------------|
----------------------------------------------------------------------------|

--6h7p6--------6-7p6--------6-7p6----|
---------9-7-9--------9-7-9-------9--|
-------------------------------------|
-------------------------------------|
-------------------------------------|
-------------------------------------|

-11-14p11----------11-14p11----------11-14p11----11---|
----------12-11-12----------12-11-12----------12------|
------------------------------------------------------|
------------------------------------------------------|
------------------------------------------------------|
------------------------------------------------------|

--------------------------------------------------------------------------------------------------|
-14b16~~~-16r14p12s11--12s14==p12s11----------9s11~-12p11-----------------------------------------|
-------------------------------------13~~--11-------------13p11~-13s9s8---------------------------|
------------------------------------------------------------------------9-------------------------|
--------------------------------------------------------------------------11s7-6h7p6p4------6-6~~~|
---------------------------------------------------------------------------------------7s9--------|

--------------------------------------------11-12-14-12-11----12p11----------------11-----------|
----------------11-12-14~--12-11------12h14----------------14-------14-12-11-12-14----14b16~~~--|
--8-----9-11s13------------------13~~-----------------------------------------------------------|
----/11-----------------------------------------------------------------------------------------|
------------------------------------------------------------------------------------------------|
------------------------------------------------------------------------------------------------|




   RIFF 2 4x

Tengo un cohete en el pantalón,

y vos estas tan fría,

como la nieve a mi alrededor,

vos estas tan blanca,
           E            <--- Enter here
que yo no se que hacer

G#m                                        C#m7    e-------------------------
La otra noche te espere bajo la lluvia dos horas,  B--9s11--12--14-14s16~~---
     D#m7           E
mil horas, como un perro,
G#m                                        C#m7
y cuando llegaste me miraste y me dijiste Loco,
        D#m7  C#m7        D#m7         
estas mojado, loco estas mojado…… ya no te quiero……

Intro 4X  w/slight variation the 4th time.

End on

--12--|
--12--|
--12--|
--14--|
--14--|
--12--|

Chords Used:

      C#7    D#7     G#m   E  F#m
 e-----4------6-------4----0---2--|
 b-----5------7-------4----0---2--|
 g-----4------6-------4----1---2--|
 d-----6------8-------6----2---4--|
 a-----4------6-------6----2---4--|
 e-----4------6-------4----0---2--|
Related for Mil Horas Live tab