Song name
# A B C D E F G H I J K L M N O P Q R S T U V W X Y Z

Enanitos Verdes - Por El Resto Vivo tab

Help us improve GuitareTab! Take a short survey!
Intro:

---------------------------------------------------------------------------------|
---------------------------------------------------------------8-10~~-10\--------|
----5-7-7/9~--5-7-7/9-------------------------5-7-7/9~-5-7-7/9------------7-9~---|
----------------------5-7~--5-7/9\7--5-7/9\7-------------------------------------|
---------------------------------------------------------------------------------|
-17\-----------------------------------------------------------------------------|

-----------------------------------------------------------------------------------------|
-------------------------------------------------------------8-10~10~-/15-15-15h17-17~---|
-5-7-7/9~--5-7-7/9-------------------------5-7-7/9~--5-7-7/9-----------------------------|
-------------------5-7~-7p5-7/9\7--5-7/9\7-----------------------------------------------|
-----------------------------------------------------------------------------------------|
-----------------------------------------------------------------------------------------|

Verse:

                                    F
Nunca necesitaste a nadie para vivir
	 	     		Am7
Ni siquiera te fijaste que haba a tu alrededor
 			         F
Desesperado mirabas las paredes de tu habitacin
         Dm				E
Y gritaste fuerte pero nadie te conoci
  	  F
Y ahora tendrs que seguir
           Dm
Cargando tu cruz

Chorus:

------------------------------------------------------------------|
------------------------------------------------------------------|
------------------------------------------------------------------|
------------------------------------------------------------------|
------------------------------------------------------------------|
-5-0-3-5~--0-3-0-5-0-3-5~--0-1-0-1-1-0-1~--0-1-0-3-0-1-3~--0-1-0--|

------------------------------------------------------------|
------------------------------------------------------------|
------------------------------------------------------------|
------------------------------------------------------------|
------------------------------------------------------------|
-5-0-3-5~--0-3-0-5-0-3-5~--0-1-0-1-1-0-1~--0-1-0-3-0-1-3~---|

Riff:

---------------------------------------------------------------------------------------------|
--------------------------------------------------------------8-10~~--/17--17-17--17-17-17~--|
--5-7-7/9~--5-7-7/9-------------------------5-7-7/9~-5-7-7/9---------------------------------|
--------------------5-7~--5-7/9\7--5-7/9\7---------------------------------------------------|
---------------------------------------------------------------------------------------------|
---------------------------------------------------------------------------------------------|

Verse 2 (Same Chords as verse 1):


Chorus:

------------------------|
------------------------|
------------------------|
------------------------|
------------------------|
-5-0-3-5~--0-3-0-5~~\---|

Solo 1 w/wah on some parts (2:21):

------------------------------------------------------------13b--15b~--15----------|
-18b~~~~-hold for 12 seconds----------------------------------------------13-------|
-----------------------------5~-7-7/9~-5~-4-5--------------------------------12~---|
----------------------------------------------7-5~/\/-w/bar------------------------|
-----------------------------------------------------------------------------------|
-----------------------------------------------------------------------------------|

     show
-----------------/13-12-10-------------------------------------------------------------|
-15h=17p15\13~-------------13-13/15-15-13--15-------------------------use bar----------|
----------------------------------------------12h14-14~/\/\/---14h16-16b17-16-14-16~---|
---------------------------------------------------------------------------------------|
---------------------------------------------------------------------------------------|
---------------------------------------------------------------------------------------|

     T       T        T      T       T     T      T      T      T
-15-17p15---18p16----18p17--19p17--20p17--21p17--22p19--23p19--24p19-24~--10//--|
------\-----/---------\-------|------|------|------/----------------------------|
-------\---/-----------\------|------|------|-----/-----------------------------|
--------\-/-------------\-----|------|------|----/------------------------------|
-----TAP 10 TIMES ----------TAP THREE TIMES-------------------------------------|
--------------------------------------------------------------------------------|
                                                                 slide rapidly down neck

-24b26~--24b26~--24\\-----------12---------------------0-------------0-----|
----------------------------/15----13--------------0---0-0-------0---0-----|
--------------------------------------12~\/\---------2-----2-------2-------|
---------------------------------------------------------------------------|
---------------------------------------------------------------------------|
-------------------------------------------------2-------------2-----------|
        slide rapidly up neck                      LET NOTES RING (W/WAH)

Solo 2 w/wah (3:19):
------|-----------------------------|-----|----------------------------------|
------|o---------------------------o|-----|o-/12-10-----12-10-/13-12-10------|
------|---/4--2------4-2-/5-4-2-----|-(5)-|---------9~~-----------------10~--|
------|---------2~~-------------3~~-|-----|----------------------------------|
------|o---------------------------o|-----|o---------------------------------|
-/21\-|-----------------------------|-----|----------------------------------|
                                                               A.H.

--------|
-18b~~-o|
--------|
--------|
-------o|
--------|

Outro:
                                           x7                             x3
-----------|------------------|--------|--------------------|--------------1~--3~---|
-----------|o----------------o|--------|o------------------o|--------------1~--3~---|
-----------|------------------|--------|--9~-5-7-9~--5-7-5--|--9~-5-7-9~~--2~--4~---|
-----------|------------------|--------|--------------------|--------------3~--5~---|
-----------|o----------------o|--------|o------------------o|-----------------------|
-5-0-3-5~--|--0-3-0-5-0-3-5~--|-0-3-0--|--------------------|-----------------------|


-17----------17------------------17---------------------------------------------------|
----20b-20b~----20b22r20p17-20b~----20b22r20p17--17h20p17----17h20p17----17h20p17-----|
----------------------------------------------------------19----------19----------20--|
--------------------------------------------------------------------------------------|
--------------------------------------------------------------------------------------|
--------------------------------------------------------------------------------------|

-----------------------------/\-------------------|
----------------------------/--\------------------|
-19p17----17h19sb~~/\------/----\----/------------|
-------19------------\----/------\--/------7\-----|
----------------------\--/--------\/-------7\-----|
-----------------------\/------------------5\-----|
                    slow bend     WHAMMY BAR ABUSE!!! MAKE YOUR GUITAR CRY CUZ THATS 
HE DOES
Related for Por El Resto Vivo tab