Song name
# A B C D E F G H I J K L M N O P Q R S T U V W X Y Z

Enanitos Verdes - Cuanto Poder En Vivo tab

       E             F#
Cuanto poder me da su amor
D                 E
la quiero a mi lado
D                     E             A
ella rompió los candados de mi amor


la conocí en abril era el destino
C#m
y dije para mi que bien que vino
Bm
yo no podía creer que me pasara
E
que una chica así se me acercara

A
se convirtió en actriz protagonista
C#m
de cada pinche film que yo rodaba
Bm
ella escribió el guión de esta novela
E
me transformó en galán yo pa’ ni vela

  Bm               C#       C          B
y desde que ella está no importa nada más

          E             F#
Cuanto poder me da su amor
D                 E
la quiero a mi lado
D                     E             A
ella rompió los candados de mi amor


------------------------------------|
--------2-2------------2------------|
------2-----2~-------2---2~---------|
--2h4------------2h4----------------|
------------------------------------|
------------------------------------|


-----------------------------------|
--------2-2------------2-----------|
------2-----1~-------2---1~--------|
--2h4------------2h4---------------|
-----------------------------------|
-----------------------------------|


-----------12-12-9--------9-9h12-9----------9-7-7/9------------------|
-------10--------------10----------------10---------12-10-12sbr-10~--|
--9h11---------------9--------------9h11-----------------------------|
---------------------------------------------------------------------|
---------------------------------------------------------------------|
---------------------------------------------------------------------|

A
Sus ojos vi brillar entre la gente
C#m
y su sonrisa fue tan contundente
Bm
algo pasaba aquí no había duda
E
y al sumar contra el te sin armadura

  Bm               C#       C          B
y desde que ella está no importa nada más

Cuanto poder...

E -----------------------------------------------------------|
B -----------------------------------------------------------|
G -----------------------------------------------------------|
D ---------------4-4-2-2----------------4-4-2-2--------------|
A -0--0-4-3-2--2---------0-0-0-4-3-2--2----------------------|
E -----------------------------------------------------------|

A
Quiero navegar mi barco pirata aquí
C#m
ir a tomar sol con ella y su bronceador
Bm
el lago Michigan fue el testigo
E
que nuestro amor nació sin compromisos

La conocí en abril...

Cuanto poder...
Tap to rate this tab
# A B C D E F G H I J K L M N O P Q R S T U V W X Y Z