Song name
# A B C D E F G H I J K L M N O P Q R S T U V W X Y Z

Enanitos Verdes - Frances Limon tab

Help us improve GuitareTab! Take a short survey!
                           Frances Limon Vivo

Intro:

|---------------------------------------------------------------------------------------|
|o-------8-10-10/12~-12/13-10~-7-8-10-8/10~-10/12-8~---7-8-7h8~-8/10-7~-5-5/7~-5-7-8~--o|
|---9-11---------------------------------------------9----------------------------------|
|---------------------------------------------------------------------------------------|
|o-------------------------------------------------------------------------------------o|
|---------------------------------------------------------------------------------------|

   Am         B7        Em     Am        B7           Em E4
     Todo tiene el color,        de tus ojos, cmo ves
   Am         B7       Em       E   Am              B7               Em
     todo cambia, no as tu voz,      cuando me hablas en frances limn 

              Am    B7    Em      E
  En un barco de papel yo volvere
      Am     B7     Em      E4
  por ti mi amor frances limn
               Am     B7     Em     E
  Las luces de la ciudad se apagaran
     Am   B7    Em   
  te besar, me besars.

     Am       B7         Em     Am          B7         Em
       Me encanta tu actitud,    dios conserve tu salud
     Am      B7         Em            Am       B7         Em
       slo por mirarte comprend       para qu yo vine aqu   

              Am    B7    Em      E
  En un barco de papel yo volvere
      Am     B7     Em      E4
  por ti mi amor frances limn
               Am     B7     Em     E
  Las luces de la ciudad se apagaran
     Am   B7    Em   
  te besar, me besars.

Solo:

------------------------------------------------------------------------------------
------8h10-10/12~-12/13-10~-7-8-10-8/10~-10/12-8~---7-8-7h8~-8/10-7~-5-7~-5-7-8~----
-9h11---------------------------------------------9---------------------------------
------------------------------------------------------------------------------------
------------------------------------------------------------------------------------
------------------------------------------------------------------------------------

--------------------
------8-10-10/12~---
-9h11---------------
--------------------
--------------------
--------------------

-------------------------------------------------14-15-17-15-14----15-14-12-14-14-12h14~-
-13b15r13-12p10-/15-13-12\10-12-10h12~--------15----------------17-----------------------
-------------------------------------------16--------------------------------------------
----------------------------------------17-----------------------------------------------
-----------------------------------------------------------------------------------------
-----------------------------------------------------------------------------------------


-14p12\10h12~--10\8\7~--7h8p7-------7---------------------------------------------
------------------------------10/12---8/10-10/12~--10p8-10/12~-12/15~-15/17~~~~~--
----------------------------------------------------------------------------------
----------------------------------------------------------------------------------
----------------------------------------------------------------------------------
----------------------------------------------------------------------------------


     Am       B7         Em
       Me encanta tu actitud,
     Am       B7         Em
       de tus ojos, cmo ves

     Am       B7         Em
       todo cambia, no as tu voz,
     Am       B7         Em
       cuando me hablas en frances limn

              Am    B7    Em      E
  En un barco de papel yo volvere
      Am     B7     Em      E4
  por ti mi amor frances limn
               Am     B7     Em     E
  Las luces de la ciudad se apagaran
     Am   B7    Em   
  te besar, me besars.

Outro:

------------------------------------------------------------------------------------
------8h10-10/12~-12/13-10~-7-8-10-8/10~-10/12-8~---7-8-7h8~-8/10-7~-5-7~-5-7-8~----
-9h11---------------------------------------------9---------------------------------
------------------------------------------------------------------------------------
------------------------------------------------------------------------------------
------------------------------------------------------------------------------------

------------------------------------------------------------
------------------------------------------------------------
-----0-2-2h4~-4h5-2~---0-2~~-2/4----------------------------
-2-4-----------------4-----------5~-2-4-5-4/5~-5/7-4~-2~----
------------------------------------------------------------
------------------------------------------------------------
Related for Frances Limon tab