Song name
# A B C D E F G H I J K L M N O P Q R S T U V W X Y Z

End Of A Year - Eddie Antar tab

This is just the main riff, will post the rest up soon.

Standard tuning

----------------------------------|
--5-5-----------5--7-7-7-8-8-8-8--|
------4-4-----4----9-9-9-9-9-9-9--|
----------5-5---------------------|
----------------------------------|
----------------------------------|

----------------------------------|
--5-5-----------5--7-7-7-8-8-8-8--|
------4-4-----4----9-9-9-9-9-9-9--|
----------5-5---------------------|
----------------------------------|
----------------------------------|

----------------------------------|
--5-5-----------5--7-7-7-8-8-8-8--|
------4-4-----4----9-9-9-9-9-9-9--|
----------5-5---------------------|
----------------------------------|
----------------------------------|

--------------------------|
--12-12-12-12-12-10-8-10--|
--9--9--9--9--9--9--9-9---|
--------------------------|
--------------------------|
--------------------------|

--------------------------|
--10-10-10-12-10-8--------|
--9--9--9--9--9--9--------|
--------------------------|
--------------------------|
--------------------------|


http://www.myspace.com/endofayear
Tap to rate this tab
 
# A B C D E F G H I J K L M N O P Q R S T U V W X Y Z