Song name
# A B C D E F G H I J K L M N O P Q R S T U V W X Y Z

End Of Fashion - Anything Goes tab

----------------------------------------------------------------------------
			   Anything Goes - End Of Fashion
----------------------------------------------------------------------------
Tabbed by: Interpol224
Email: Rugby_league_legend@hotmail.com

Tuning:Standard

Just so everyone knows this is my first tab, however I think it is pretty correct me and 
guitar teacher/uncle worked this out over an hour or so, so if anyone has any problems 
it then feel free to submit what you think sounds more correct.

Chords used are;

   C#      B       A      F#

e|-----------------0------2-|
B|-6-------4-------2------2-|
G|-6-------4-------2------3-|
D|-6-------4-------2------4-|
A|-4-------2-------0------4-|
E|------------------------2-|

The Strumming is pretty easy to get just listen to the song.

I can't remember when but there is one picky part in it somewhere so I'll give you that 
the rest is up to you this songs pretty easy to play after you listen to it a few times.

e|----------------------------|
B|-----------6---------------7|
G|---------------6------------|
D|-------6---------------6----|
A|---4---------------4--------|
E|----------------------------|
Tap to rate this tab
 
# A B C D E F G H I J K L M N O P Q R S T U V W X Y Z