End Of Fashion - Dying For You tab

Noticed no tabs for this song so i made a basic one. none of the annoying fill-ins just 
chords and a bit of picking, u work out timing and strumming.
Intro
e---------------------|
b---------------------|
g-7-------------------|
d-5- 7--9 10 -5-------|
a-5- 7--9 10 -5-------|
E--- 5--7 8 - 3-------|

Verse/chorus

e--------------------|
b--------------------|
g-7------------------|
d-5- 7-- 10 -5-------|
a-5- 7-- 10 -5-------|
E--- 5-- 8 - 3-------|

Chorus 2nd time

e--------------------|
b--------------------|
g-  7----------------|
d- 5-  7-- 10 -5-----|
a-5-  7-- 10 -5------|
E--- 5-- 8 - 3-------|
Tap to rate this tab
 
# A B C D E F G H I J K L M N O P Q R S T U V W X Y Z