Song name
# A B C D E F G H I J K L M N O P Q R S T U V W X Y Z

End Of Fashion - O Yeh tab

Hey peeps, the tabs i checked for this song are way wrong. So I tabbed it. I think, I
I know it's correct. Any queries email ttom3620_12@hotmail.com. Enjoy!


INTRO CHORDS: (HEAVY DISTORTION) The chords are played quite fast.

  E               C#m            D              B
e|-0-0-0-0-0--0-0-4-4-4-4-4--4-4-5-5-5-5-5--5-5-7-7-7-7-7--7-7----------|
B|-0-0-0-0-0--0-0-5-5-5-5-5--5-5-7-7-7-7-7--7-7-7-7-7-7-7--7-7----------|
G|-1-1-1-1-1--1-1-6-6-6-6-6--6-6-7-7-7-7-7--7-7-8-8-8-8-8--8-8----------|
D|-2-2-2-2-2--2-2-6-6-6-6-6--6-6-7-7-7-7-7--7-7-9-9-9-9-9--9-9----------|
A|-2-2-2-2-2--2-2-4-4-4-4-4--4-4-5-5-5-5-5--5-5-9-9-9-9-9--9-9----------|
E|----------------------------------------------7-7-7-7-7--7-7----------|

Riff: Play after INTRO (HEAVY DISTORTION)

e|-0---0---4---4---4---4---2---2--|
B|---0---0---5---5---4---4---2---2|
G|--------------------------------|
D|--------------------------------|
A|--------------------------------|
E|--------------------------------|

VERSE CHORDS:

   E              C#m            Ab             F#
e|-0-0-0-0-0--0-0-4-4-4-4-4--4-4-4-4-4-4-4--4-4-2-2-2-2-2--2-2----------|
B|-0-0-0-0-0--0-0-5-5-5-5-5--5-5-4-4-4-4-4--4-4-2-2-2-2-2--2-2----------|
G|-1-1-1-1-1--1-1-6-6-6-6-6--6-6-5-5-5-5-5--5-5-3-3-3-3-3--3-3----------|
D|-2-2-2-2-2--2-2-6-6-6-6-6--6-6-6-6-6-6-6--6-6-4-4-4-4-4--4-4----------|
A|-2-2-2-2-2--2-2-4-4-4-4-4--4-4-6-6-6-6-6--6-6-4-4-4-4-4--4-4----------|
E|-------------------------------4-4-4-4-4--4-4-2-2-2-2-2--2-2----------| x4

CHORUS CHORDS ARE SAME AS INTRO CHORDS (x4)

Back to VERSE

CHORUS

REFRAIN

                                                                                   Am
                      E                             Am
C'mon  sweet candy, just gimme some sweet candy. You make me feel ooooh
                           B
baby. You think you're all that.

CHORUS

VERSE

END

THANKYOU!!!
Tap to rate this tab
# A B C D E F G H I J K L M N O P Q R S T U V W X Y Z