Guitaretab - guitar tabs
Song name
# A B C D E F G H I J K L M N O P Q R S T U V W X Y Z

End Of Fashion - Oh Yeh tab

Tuning: Standard

Intro/Verse: Listen to the song work out the rhythm
e|------------------------------------------------|
B|------------------------------------------------|
G|-----------6-6-6-6-6----------------------------|
D|-2-2-2-2-2-6-6-6-6-6-6-6-6-6-6-4-4-4-4-4--------|x6
A|-2-2-2-2-2-4-4-4-4-4-6-6-6-6-6-4-4-4-4-4--------|
E|-0-0-0-0-0-----------4-4-4-4-4-2-2-2-2-2--------|
[ Tab from: http://www.guitaretab.com/e/end-of-fashion/82013.html ]
This is the 2nd Guitar solo bit throughout the song:
e|-0--0--4--4--4--4--2--2-------------------------|
B|--0--0--5--5--4--4--2--2------------------------|
G|------------------------------------------------|
D|------------------------------------------------|
A|------------------------------------------------|
E|------------------------------------------------|

Chorus:Different Ryhthm to intro/verse 
e|------------------------------------------------|
B|------------------------------------------------|
G|-----------6-6-6-6-6----------------------------|
D|-2-2-2-2-2-6-6-6-6-6-6-6-6-6-6-4-4-4-4-4--------|x5
A|-2-2-2-2-2-4-4-4-4-4-6-6-6-6-6-4-4-4-4-4--------|
E|-0-0-0-0-0-----------4-4-4-4-4-2-2-2-2-2--------|

Intro/verse

Chorus

Bridge:
     Am         Em
Cmon sweet candy

                   Am         Em
just give me some sweet candy

                   Am     Em
you make me feel oooh baby 

                      B
You think your all that
 
Related for Oh Yeh tab
×
Oh Yeh