Song name
# A B C D E F G H I J K L M N O P Q R S T U V W X Y Z

End Of Man - Invocation Of The Flesh tab

Song Title: Invocation of the flesh
Artist: End of Man
Genre: Thrash
Album: Power,Corruption and Lies

Tuning: D Standard



  RIFF no.1  - Verse(palm muted)

d-------------------------------------------|
A-------------------------------------------|
F-------------------------------------------|
C-------------------------------------------|
G-2-2-2-2-2-2-2-2-2-2--5-/-8----------------|
D-0-0-0-0-0-0-0-0-0-0--3-/-6----------------| 8x



RIFF no. 2  - Chorus

d-------------------------------------------|
A-------------------------------------------|
F-------------------------------------------|
C-------------------------------------------|
G-------------------------------------------|
D-00000-00000-000-11111-11111-111-----------| 2x


RIFF no 1  - Verse
RIFF no 2  - Chorus


RIFF no 3
d-------------------------------------------|
A-------------------------------------------|
F-------------------------------------------|
C---2-3--1-2------1-3---2-3---6-5--------3--|
G--------------1-3-------------------2-3----|
D-00---0-----0--------00----0------0--------|


d-------------------------------------------|
A-------------------------------------------|
F-------------------------------------------|
C---2-3--1-2------1-3---2-3---6-------------|
G--------------1-3--------------------------|
D-00---0-----0--------00----0---------------| 



RIFF no. 4

d-------------------------------------------|
A-------------------------------------------|
F-------------------------------------------|
C---2-3--1-2------1-3---2-3---6-5--------3--|
G--------------1-3-------------------2-3----|
D-00---0-----0--------00----0------0--------| 6x


RIFF no 1
Riff no 2 (ikaw n bhla diskartehan mo nlang)

message mo sa FB kung may mali po salamat :)
martinezjerome05@yahoo.com
Tap to rate this tab
# A B C D E F G H I J K L M N O P Q R S T U V W X Y Z