Song name
# A B C D E F G H I J K L M N O P Q R S T U V W X Y Z

End Of Man - Pakagat Ng Dilim tab

-----------------------------------------------------------------------------
                        Pakagat Ng Dilim – End Of Man                     
-----------------------------------------------------------------------------
Tabbed by: Vern 
Email:verndogg@hotmail.com

This is my first tab so sorry for any inaccuracies. 
This is the rhythm guitar parts because I’m not 
good enough to tab out the lead for you. 
Please email me with the subject “Pakagat Ng Dilim Tab” 
for any corrections or additions like the solo if you 
happen to know it. English please, my Tagalog isn’t that 
good either. This is how my band plays this song and 
I thought I would share. Enjoy!

Tuning: Whole step down D

Intro Riff (4x)
d|------------------------------------------|
A|------------------------------------------|
F|------------------------------------------|
C|2-2-2-----2-2-2-----2-2-2-----------------| 
G|2-2-2-3-5-2-2-2-3-5-2-2-2-3-5-3p2p0-----2-|
D|0-0-0-1-3-0-0-0-1-3-0-0-0-1-3-------3-0---|

          1st Verse Riff (8x)
d|--|---------------------------------------------------------------|
A|--|---------------------------------------------------------------|
F|--|---------------------------------------------------------------|
C|2-|--2-2-2-2-5-----4--5-7---------2-2-2-2-5-----4-----------------| 
G|2-|--2-2-2-2-3-2-2-2--3-5—7h-8p-7-2-2-2-2-3-----2---4---4---3---3-|
D|0-|--0-0-0-0---0-0---0------------0-0-0-0---0-0---0-2-0-2-0-1-0-1-|

d|----|-----|-----|-------|
A|----|-----|-----|-------|
F|----|-----|-----|-------| (4x)
C|2-2-|2-2-2|2-2-2|2-2-2--|
G|2-2-|2-2-2|2-2-2|2-2-2-3|
D|0-0-|0-0-0|0-0-0|0-0-0-1|

d|-------------------------------------------------------------|
A|-------------------------------------------------------------|
F|-------------------------------------------------------------|
C|2-2-2-2-5-----4--5-7---------2-2-2-2-5-----4-----------------| (4x)
G|2-2-2-2-3-2-2-2--3-5—7h-8p-7-2-2-2-2-3-----2---4---4---3---3-|
D|0-0-0-0---0-0---0------------0-0-0-0---0-0---0-2-0-2-0-1-0-1-|

d|----|-----|-----|-------|
A|----|-----|-----|-------|
F|----|-----|-----|-------| (4x)
C|2-2-|2-2-2|2-2-2|2-2-2--|
G|2-2-|2-2-2|2-2-2|2-2-2-3|
D|0-0-|0-0-0|0-0-0|0-0-0-1|

            2nd Verse Riff (4x) 
d|--|--|0-|--|------------------------------------------------|
A|--|--|0-|--|------------------------------------------------|
F|--|--|--|--|------------------------------------------------|
C|2-|9-|--|2-|------------------------------------3-3-3-3-3-3-| 
G|2-|7-|--|2-|------------2-----------------------1-1-1-1-1-1-|
D|0-|--|--|0-|3-2-1-3-2-1---3-2-3-2-0-3-2-1-3-2-1-------------|

Solo/3rd Verse Riff (15x)
d|----------------------------------------------------------------|
A|----------------------------------------------------------------|
F|----------------------------------------------------------------|
C|2-2-2-2-5-----4--5-7---------2-2-2-2-5-----4--------------------| 
G|2-2-2-2-3-2-2-2--3-5—7h-8p-7-2-2-2-2-3-----2---4---4---3---3----|
D|0-0-0-0---0-0---0------------0-0-0-0---0-0---0-2-0-2-0-1-0-1----|

d|----|-----|-----|-------|        
A|----|-----|-----|-------|
F|----|-----|-----|-------| (3x)
C|2-2-|2-2-2|2-2-2|2-2-2--|
G|2-2-|2-2-2|2-2-2|2-2-2-3|
D|0-0-|0-0-0|0-0-0|0-0-0-1|

d|----|-----|----|
A|----|-----|----|
F|----|-----|----|
C|2-2-|2-2-2|2-2-|
G|2-2-|2-2-2|2-2-|
D|0-0-|0-0-0|0-0-|

I don’t know what the harmony of guitar 2 is here. 
Please email me if you figure it out.
d|-----------------------------------------------------------------|
A|-----------------------------------------------------------------|
F|------------------------7-8---9-8---10---------------------------|
C|----------------------------7-----9----9-------------------------|
G|-----------------------------------------------------------------|
D|0-0-0-0-0-0-0-0-0-0-0-0------------------0-0-0-0-0-0-0-0-0-0-0-0-|

d|----------------|
A|----------------|
F|7-8---9-8---10--| (4x)
C|----7-----9-----|
G|----------------|
D|----------------|

Ending
d|--------|----------------------------------------------|
A|--------|----------------------------------------------|
F|--------|----------------------------------------------|
C|2-------|--2-2-2-2-5-----4--5-7---------2-2-2-2-------2| 
G|2-------|--2-2-2-2-3-2-2-2--3-5—7h-8p-7-2-2-2-2-5-4-3-2|
D|0-------|--0-0-0-0---0-0---0------------0-0-0-0-3-2-1-0|


************************************

| /   slide up
| \   slide down
| h   hammer-on
| p   pull-off
| ~   vibrato
| +   harmonic
| x   Mute note
| b   Bend
| pb  Pre-bend
| br  Bend release
| pbr Pre-bend release
| brb Bend release bend

************************************

Tap to rate this tab
# A B C D E F G H I J K L M N O P Q R S T U V W X Y Z