Song name
# A B C D E F G H I J K L M N O P Q R S T U V W X Y Z

Endank Soekamti - Gila Sendiri tab

Judul      : Gila sendiri
Artis      : Endank Soekamti
Tab oleh   : yoos
Email      : yoos_yoes@yahoo.com

Fig1
e|-----------------------|
B|-----------------------|
G|---4---4---4-5-4-------|
D|-5---------------7-5-5-|
A|-----5---7-------------|
E|-----------------------|

Fig2
e|----------------------------------------------------------------------------------------------|
B|---5-7-/8-7-5-7-/10-8-7-8-7----------5-7-/8-7-5-7-/10-8-7-8-7h8p7h8p7h8p7h8p7h8p7h8p7h8p7h8p7-|
G|-4--------------------------7-4-7--4----------------------------------------------------------|
D|----------------------------------------------------------------------------------------------|
A|----------------------------------------------------------------------------------------------|
E|----------------------------------------------------------------------------------------------|

Fig1 2x

Fig1           4x
G5 D5 E5 C5

G5              D5              E5                   B5
Coba kulihat lebih dekat lagi apa yang sebenarnya membuatmu menari
C5              G5   A5         D5   C5 B5 A5
Ternyata oh ternyata kusedang jatuh cinta
G5              D5              E5                   B5
Semakin menjauh semakin mendalam senyuman manismu membuatku tak tahan
C5         G5         A5         D5   C5 B5 A5
Mengapa oh mengapa ku sedang jatuh cinta

          G5              B5         E5   D5
Terkadang pusing pusing pusing tujuh keliling
          C5         B5         A5         D5
Bila sedang jatuh cinta bila di mabuk asmara
          G5              B5   E5         D5
Terkadang riang senang hati berbunga-bunga
          C5   B5   A5 D5      C5 B5 A5
Bila sedang jatuh cinta… kepadamu

Fig1
G5

Fig1            2X
G5 D5 E5 C5

G5              D5         E5                   B5
Bila kusedang dimabuk asmara semua terasa indah hati bergelora
C5         G5   A5         D5   C5   B5 A5 G5
Karena oh karena ku sedang jatuh cinta
G5              D5                   E5                   B5
Mmmuarahku bila kau jalan dengannya sekejap saja kujadi cemburu buta
C5         G5   A5         D5   C5   B5 A5
Karena oh karena ku sedang jatuh cinta

          G5              B5         E5   D5
Terkadang pusing pusing pusing tujuh keliling
          C5         B5         A5         D5
Bila sedang jatuh cinta bila di mabuk asmara
          G5              B5   E5         D5
Terkadang riang senang hati berbunga-bunga
          C5   B5   A5 D5      C5 B5 A5
Bila sedang jatuh cinta… kepadamu

Fig2
G5 D5 A5 E5 G5 D5 A5 G5
Tap to rate this tab
 
# A B C D E F G H I J K L M N O P Q R S T U V W X Y Z