Song name
# A B C D E F G H I J K L M N O P Q R S T U V W X Y Z

Endank Soekamti - Bau Mulut tab

Judul      : Bau Mulut
Artis      : Endank Soekamti
Tab oleh   : yoos
Email      : yoosyoes@yahoo.com
Blog       : yoosyoes.blogspot.com

Fig1
e|---------------------------------|
B|---------------------------------|
G|-5-5---------5-5---------7-7-----|
D|-----5-5---------7-7---------9-9-|
A|---------7-7---------8-8---------|
E|---------------------------------|

Fig2
D|-12-12-12-12-12-12-12-| (Disentuh tidak ditekan)

Fig3
E|-3-5-3-|

Fig4
e|---------------------------------------------------|
B|---------------------------------------------6---6-|
G|-5-5---------------2-2-4-4-5-5-9-9-7-7-5-5-5---5---|
D|-5-5-3-3-5-5-5-5-5---------5-5-9-9-7-7-------------|
A|-3-3-3-3-5-5---------------3-3-7-7-5-5-------------|
E|-----1-1-3-3---------------------------------------|

e|---------------------------------------|
B|---------------------------------------|
G|-5-5---------------2-2-4-4-5-5-9-9-7-7-|
D|-5-5-3-3-5-5-5-5-5---------5-5-9-9-7-7-|
A|-3-3-3-3-5-5---------------3-3-7-7-5-5-|
E|-----1-1-3-3---------------------------|

Fig5
e|----------------------------------------------------|
B|----------------------------------------------------|
G|-5-5-9-9-7-7--7-7-7-10-10--5-5-9-9-7-7--7-7-7-12-12-|
D|----------------------------------------------------|
A|-3-3-7-7-5-5--5-5-5--8--8--3-3-7-7-5-5--5-5-5-10-10-|
E|----------------------------------------------------|

Fig1 6x
Kasihku tercinta maafkanlah aku
Bila aku lupa cium dirimu

“pick slide”

Fig1 2x
Kasihku yang setia tak perlu kau minta
Nanti pasti aku cium dirimu

“pick slide”

F5         E5   D5   G5   C5
Bukan aku tak mau ataupun tak setuju
F5         E5         D5   G5   C5
Sekarang ku tak tahan bau mulutmu

F5 G5 A5 F5 G5 Fig2
Na na na na na na ……
F5 G5 A5 F5 G5 C5
Na na na na na na ……

Fig1 3x
                              Fig3
Kasihku tercinta maafkanlah aku
C5         F5   D5 G5      C5
Bila aku lupa cium dirimu

F5 G5 A5 F5 G5 Fig2
Na na na na na na ……
F5 G5 A5 F5 G5 C5
Na na na na na na ……

Fig4
Fig5 2x
Tap to rate this tab
 
# A B C D E F G H I J K L M N O P Q R S T U V W X Y Z