Song name
# A B C D E F G H I J K L M N O P Q R S T U V W X Y Z

Endank Soekamti - Pejantan Tambun tab

Judul      : Pejantan Tambun
Artis      : Endank Soekamti
Tab oleh   : yoos
Email      : yoosyoes@yahoo.com
Blog       : yoosyoes.blogspot.com

Fig1
e|-------------|
B|-------------|
G|-------------|
D|-------------|
A|-5--/7-5-3-2-|
E|-------------|

Fig2
e|-10---8--------|
B|----8---8-10-8-|
G|---------------|
D|---------------|
A|---------------|
E|---------------|

Fig3
e|-----------------|
B|-8-8-7-8---------|
G|---------4-4-5-4-|
D|-----------------|
A|-----------------|
E|-----------------|

Fig4
e|----------------------------|
B|----------------------------|
G|----------------------------|
D|----------2-5-----------4-7-|
A|---2-5--3--------4-7--5-----|
E|-3-------------5------------|

Fig5
e|-----------------|
B|-----------------|
G|-----------------|
D|-----------------|
A|-----3-3-----5-5-|
E|-3-3-----5-5-----|

(pick slide)
G5 C5 G5 C5 G5 C5 D5 C5 B5
G5 C5 G5 C5 G5 C5 D5 C5 B5 D5 C5 B5 D5 C5 B5 D5 C5 B5

G5              C5         A5              D5
Membesar perut indahku tak merubah gaya hidupku
    G5         C5         A5              D5
Tak perduli kata mereka olahraga takkan berguna
    G5              C5   B5   A5         D5   E5 D5
Karena aku suka seperti ini bebas minum tak terkendali
G5              C5 B5 A5             D5 E5 D5
Aku suka seperti ini bebas makan sesuka hati

(Fig1)
    G5         C5         A5         D5
Perut gendut tiada masalah tetap pede sudah biasa
    G5         C5         A5         D5
Ku tak mau menyiksa diri olahraga takkan berguna
    G5              C5   B5   A5         D5   E5 D5
Karena aku suka seperti ini bebas minum tak terkendali
G5              C5 B5 A5             D5 E5 D5
Aku suka seperti ini bebas makan sesuka hati

G5              C5 B5 A5
Aku anak sehat (bukan pemalas)
G5                   C5 B5 D5
Aku harusnya kuat (sangat bergairah)

(Fig2)
G5                        C5 B5 A5
Bajuku yang dulu sudah tak cukup lagi
G5                         C5 B5 D5
Porsi makan aku bertambah banyak sekali
G5                        C5 B5 A5
Tapi masih merasa badanku paling seksi
G5                         C5 B5 D5
Jangan sia-siakan aku pejantan tambun

(Fig3)
G5 F5 G5 B5 C5 B5

(Fig4)
Perut gendut tiada masalah tetap seksi banyak temannya
Ku tak mau menyiksa diri olahraga takkan berguna
(Fig5)
Karena aku suka seperti ini bebas minum tak terkendali
Aku suka seperti ini bebas makan sesuka hati

Outro:
G5 A5 B5 A5 G5 A5 B5 A5 G5 A5 B5 A5 C5 B5
G5 A5 B5 A5 G5 A5 B5 A5 G5 A5 B5 A5 C5 B5 G5
Tap to rate this tab
 
# A B C D E F G H I J K L M N O P Q R S T U V W X Y Z