Endank Soekamti - Selamatkan Aku tab

Song          : Selamatkan Aku
Artist        : Endank Soekamti
Album         : Pejantan Tambun
Tabbed by     : yoos (yoosyoes.blogspot.com)


Fig1
e|-------------------------------------------------------------------|
B|-------------------------------------------------------------------|
G|-----------------------------------------------------------9---7---|
D|--5-0-5-0-5-0-5-0-5-0-5-0-4-0-7--0-5-0-5-0-5-0-5-0-5-0-5-0---0-----|
A|-------------------------------------------------------------------|
E|-------------------------------------------------------------------|

Fig2
e|-------------------------|
B|-------------------------|
G|-------------------------|
D|-------------------------|
A|-------------------------|
E|--/3--5/7---8-7--5-3--3--|
 
Fig3
e|--------------------------------------|
B|--------------------------------------|
G|--9-9-9-9--7-7-7-7--4-4-4-4--7-7-7-7--|
D|--------------------------------------|
A|--7-7-7-7--5-5-5-5--2-2-2-2--5-5-5-5--|
E|--------------------------------------|

Fig4
e|--------------------------------------------------------|
B|--------------------------------------------------------|
G|--9-9-9-9--11-11-11-11--7-7-7-7--9-9-11-11-12-12-14-14--|
D|--------------------------------------------------------|
A|--7-7-7-7--9--9--9--9---5-5-5-5--7-7-9--9--10-10-12-12--|
E|--------------------------------------------------------|

e|--------------------------------------|
B|--------------------------------------|
G|--9-9-9-9--7-7-7-7--4-4-4-4--4-4-4-4--|
D|--------------------------------------|
A|--7-7-7-7--5-5-5-5--2-2-2-2--2-2-2-2--|
E|--------------------------------------|


CHORD
=====

Fig1
G5 F#5 A5   G5 E5 D5

Fig2
G

G
ku benci malam ini
F#m
ku benci tempat ini
Em               D 
dan kesepian ini menggangguku

G
di dalam botol ini
F#m
di dalam asap ini
Em                   D
bayang-bayang dirimu membunuhku

Fig3
A5 B5 C5 E5

Fig4
C        D          Bm                     Em
haruskah semua yang dulu tlah datang pergi dan menghilang
C        D              G
kuterus bertanya engkau dimana
C          D        Bm                 Em
mungkinkah sekarang seorang kan datang temani diriku
C       D                    G
sebelum terlambat selamatkan aku
Tap to rate this tab
 
# A B C D E F G H I J K L M N O P Q R S T U V W X Y Z