Song name
# A B C D E F G H I J K L M N O P Q R S T U V W X Y Z

Endeverafter - Next Big Thing tab

     I was talking to the singer and he said this is how you play it.

Intro and Verse

e-----------------------------------------------------------------------------------|
b---------7-------------7-----------7------------7----------------------------------|
g-----------------------------------------------------------------------------------|
d-------9-----------9------------9-------------9------------------------------------|
a----7-----------7------------7------------7----------------------------------------|
e--0----------7-----------5------------0--------------------------------------------|

Bridge ( Into your arms......)

e------------------------|
b------------------------|
g--------9999------------|
d--9999--9999--99999999--|
a--9999--7777--99999999--|
e--7777--------77777777--|


Chorus

e-------------------------------|
b-------------------------------|
g---99-----------99-------------|
d---99-----77----99----99----2--|
a---77-----77----77----99----2--|
e----------55----------77----0--| x4


Verse

Bridge

Chorus

Solo

Chorus x2

Intro

       Questions E-mail Kananvitolo@yahoo.com
Tap to rate this tab
 
# A B C D E F G H I J K L M N O P Q R S T U V W X Y Z