Song name
# A B C D E F G H I J K L M N O P Q R S T U V W X Y Z

Endeverafter - Baby Baby Baby tab

This song is in Drop D tuning

^-Bend
r-Release Bend
h-Hammer On
p-Pull Off
/-Slide
()-Pinch Harmonics
T-Tap


Intro Solo

E|------------------------------------------------------------------|
B|------------------------------------------------------------------|
G|---7^rp5---7^rp5---7^rp5---7^rp5---5-(7)^---(7)^rp5---------(7)---|
D|---------7-------7-------7-------7------------------7-5-----------|
A|--------------------------------------------------------7-6-------|
D|------------------------------------------------------------------|

E|---8p5-----8p5-8p5-----7p5-----8p5-----7p5-----8p5-----10p5-------|
B|-------8p5---------8p5-----8p5-----8p5-----8p5-----8p5------8p5---|
G|------------------------------------------------------------------|
D|------------------------------------------------------------------|
A|------------------------------------------------------------------|
D|------------------------------------------------------------------|

E|---8/10-8-5-------------------------------------------------------|
B|------------8-7-5-------------------------------------------------|
G|------------------8-7-5/4--(4)^r----------------------------------|
D|--------------------------5---------------------------------------|
A|------------------------------------------------------------------|
D|------------------------------------------------------------------|


Middle Solo

     Slowly Release Bend While Still Picking 8th Fret
E|------------------------------------------------------------------|
B|---8^8^(8)^(8)^(8)^(8)^(8)^8^8^8^8^8^8^8-8p5---8p5-8p5---8p5-8p5--|
G|--------------------------------------------7p5-------7p5---------|
D|------------------------------------------------------------------|
A|------------------------------------------------------------------|
D|------------------------------------------------------------------|

E|----------------------------------------------T8p7p5------T8p7p5--|
B|----8p5---8p5---8^----------------------------------T8p7p5--------|
G|-7p5---7p5---7p5--(7)^-7-5---5------------------------------------|
D|---------------------------7---7-5--------------------------------|
A|-----------------------------------7-6p5/3-3/5--------------------|
D|------------------------------------------------------------------|

E|-------T8p7p5------T8p7p5------T10p8p5-------T10p8p5-------T10p8p5|
B|-T8p7p5------T8p7p5------T8p7p5-------T10p8p5-------T10p8p5-------|
G|------------------------------------------------------------------|
D|------------------------------------------------------------------|
A|------------------------------------------------------------------|
D|------------------------------------------------------------------|

E|--------T10p8p5---------------------------------------------------|
B|-T10p8p5-------T10p8p5--------------------------------------------|
G|-----------------------4-5-4---4-5-4---4-5-4-5-7p5---7p5-7p5------|
D|-----------------------------5-------5------------7p5-------7p5---|
A|------------------------------------------------------------------|
D|------------------------------------------------------------------|

E|------------------------------------------------------------------|
B|-----------8p5---8p5---(8)^--12-13-12--12-13-12--12-13-12-13------|
G|-7p5-7p5------7p5---7p5--------------12--------12-----------------|
D|--------7p5-------------------------------------------------------|
A|------------------------------------------------------------------|
D|------------------------------------------------------------------|

E|-----------------------------------------15p12-----15p12-----15p12|
B|-15p13-----15p13-----15p13-----15p13----------15p12-----15p12-----|
G|------14p12-----14p12-----14p12-----14p12-------------------------|
D|------------------------------------------------------------------|
A|------------------------------------------------------------------|
D|------------------------------------------------------------------|

E|------15p12------15^^^^^^^^^^^^^^^^^^^^^--------------------------|
B|-15p12-----15p12--------------------------------------------------|
G|------------------------------------------------------------------|
D|------------------------------------------------------------------|
A|------------------------------------------------------------------|
D|------------------------------------------------------------------|


The Ending Solo Is Different every time this is what i play


E|------------------------------------------------------------------|
B|------------------------------------------------------------------|
G|-(7)^^^^^^^^^^^--7^^rp5-------------------5h7p5-5-7---------------|
D|------------------------6~~~~~~~-------5-7-----7------------------|
A|---------------------------------5-6-7----------------------------|
D|------------------------------------------------------------------|

E|------------------------------------------------------------------|
B|--4-h-5-h-8-p-5-p-4-h-5-h-8-p-5-p-4h5h8p5p4h5h8p5p4h5h8p5p4h5h8p5p|
G|------------------------------------------------------------------|
D|------------------------------------------------------------------|
A|------------------------------------------------------------------|
D|------------------------------------------------------------------|

E|------------------------------------------------------------------|
B|p4h5h8p5p4h5h8p5p4h5h8p4h5h8p5p4h5h8p5p4h5h8p5p4h5h8p5p4h5h8p5p4h5|
G|------------------------------------------------------------------|
D|------------------------------------------------------------------|
A|------------------------------------------------------------------|
D|------------------------------------------------------------------|

E|----------------------------8p7p5-----8p7p5-----8p7p5-----8p7p5---|
B|h8p5p4---------------------------8p7p5-----8p7p5-----8p7p5--------|
G|------8p7p5-8p7p5-------------------------------------------------|
D|-----------------8p7p5-8p7p5--------------------------------------|
A|------------------------------------------------------------------|
D|------------------------------------------------------------------|

E|------10p8p5------10p8p5------10p8p5------10p8p5------------------|
B|-8p7p5------10p8p5------10p8p5------10p8p5------10p8p5------------|
G|------------------------------------------------------7^r5---5----|
D|-----------------------------------------------------------7---7--|
A|------------------------------------------------------------------|
D|------------------------------------------------------------------|

E|------------------------------------------------------------------|
B|------------------------------------------------------------------|
G|------------------------------------------------------------------|
D|-5h7p5---5-----------------------------------------------5h7p5----|
A|-------7---7-6-5h6h7-5h6h7-5h6h7-5h6h7-5h6h7-5h6h7-5h6h7----------|
D|------------------------------------------------------------------|

E|------------------------------------------------------------------|
B|------------------------------------------------------------------|
G|-----------------------(7)^rp5---5--------------------------------|
D|---------7~~5~~4~~2~~----------7---7-5-5h7p5----------7~~~~~~~~---|
A|-7p6p5-3-7~~5~~4~~2~~------------------------7-6-5-3--7~~~~~~~~---|
D|---------7~~5~~4~~2~~---------------------------------7~~~~~~~~---|
D|
Tap to rate this tab
# A B C D E F G H I J K L M N O P Q R S T U V W X Y Z