Song name
# A B C D E F G H I J K L M N O P Q R S T U V W X Y Z

Endless Hallway - Autonomy Barrier tab

Autonomy Barrier by Endless Hallway

intro:
|------3-------3-------3-----------3------------------------------------|
|------------------------------0-------------------------------4-4-4-4~-|
|--0---------------------------0-----------2---2---4--2--4--2--0-0-0-0--|
|----2---2-2-2---2-2-2---2-2-2---2---2-2-2-4~--4-4-4--4--4--4--1-1-1-1--|
|--------------------------------------------------5--5--5--5-----------|
|-----------------------------------------------------------------------|

|------------------|
|------------------|
|--------------4-6-|
|--------4-6-7-----|
|--4-6-7-----------|
|------------------| (very fast with delay)

|------------------------------------------------------------------|
|----------------------------------4-------4-------4-------4-------|
|--6-------6-------6-------6---------4-------4-------4-------4-----|
|----6-------6-------6-------6---------6-------6-------6-------6---|
|------7-------7-------7-------7---------6-------6-------6-------6-|
|--------9-------9-------9-------9---------------------------------|

|------------------9----------9----------|
|--7-------7---------10---------10-------|
|----6-------6----------11---------11----|
|------7-------7-----------11---------11-|
|--------9-------9-----------------------|
|----------------------------------------|
Tap to rate this tab
# A B C D E F G H I J K L M N O P Q R S T U V W X Y Z