Song name
# A B C D E F G H I J K L M N O P Q R S T U V W X Y Z

Endo - Suffer tab

Suffer by Endo

Tabbed by Anima13
Didn't take me long to tab. I don't know what tuning Endo uses but this tab
is arranged for Dropped d.
any corrections or comments email me videofreak_13@hotmail.com

Intro/Chorus:
Guitar 1
e|---------------------------------|
b|---------------------------------|
g|---------------------------------|
d|0-0-0-0-3-3-3-3-7-7-7-7-7-7-10-10|
a|0-0-0-0-3-3-3-3-7-7-7-7-7-7-10-10|
d|0-0-0-0-3-3-3-3-7-7-7-7-7-7-10-10|

Guitar 2
e|-------------------------------------|
b|-------------------------------------|
g|7-7-7-7-10-10-10-10-9-9-9-9-9-9-12-12|
d|x-x-x-x-x--x--x--x--x-x-x-x-x-x-x--x-|
a|5-5-5-5-8--8--8--8--7-7-7-7-7-7-10-10|
d|-------------------------------------|

Verse:I'm not too sure about this part
e|---------------|
b|-----6---6--6--|
g|---5---5--5--5-|
d|---------------|
a|---------------|
d|0--------------|

The little thing after the first chorus:
e|------------------------17-17-17-17-17-17-17-17|
b|17-17-17-17-17-17-17-17------------------------|
g|-----------------------------------------------|
d|-----------------------------------------------|

That's it, not very hard of a song.
Tap to rate this tab
 
# A B C D E F G H I J K L M N O P Q R S T U V W X Y Z