Song name
# A B C D E F G H I J K L M N O P Q R S T U V W X Y Z

Endo - Circles tab

t=10  T=13  F=15  sorry if this confuses anybody, but it's very
difficult to use double-didgets during solos.

verse
e(-------------------------------------------------6----6-----)
b(------------------------------------------------------------)
g(--5/7-----7---9---10---7-9-8-7/5-----5---5---7--------------)
d(------------0---0----0-----------------0---0---0----00---00-)
a(--3/5-5-5--------------------5/3-3-3------------------------)
D(------------------------------------------------------------)

continued
e(--------------5---5/7---7/8-8---6---5---0---)
b(--------------------------------------------)
g(--5/3-----3-------------------------------7-)
d(--------0---0---0-----0-----0-0-0-0-0-----7-)
a(--3/1-1-----------------------------------5-)
D(--------------------------------------5---5-)

chorus
e(--------------------------------------------)
b(--------------------------------------------)
g(--5/7-77-7-7/1010101010101010-121212-121210-)
d(--5/7-77-7-7/1010101010101010-121212-121210-)
a(--3/5-55-5-5/8--8-8-8-8-8-8-8-101010-1010-8-)
D(--------------------------------------------)
      pm..
post 1st chorus(harmonics)
e(-----15-)
b(-----15-)
g(-----15-)
d(--12----)
a(--7-----)
D(--7-----)

solo
e(-------------------8------------------------------------8-)
b(----------------------------------------------------------)
g(------3---5-8/10-9-------3---5-5/7-77-9-91010-9-5/7-9-7---)
d(--------0------------------0------------------------------)
a(--3/5----------------3/5----------------------------------)
D(----------------------------------------------------------)

solo continued
e(--10-8-10-8-6--------10-8-6666666666666666TTTTTTTTTTTTTTFF-)
b(-----------------------------------------------------------)
g(--------------5/7-77---------------------------------------)
d(-----------------------------------------------------------)
a(-----------------------------------------------------------)
D(-----------------------------------------------------------)

solo(rythem-guitar)
e(---------------------------------------)
b(---------------------------------------)
g(--7-3-7777777777777777tttttttttttttttt-)
d(--7-3-7777777777777777tttttttttttttttt-)
a(--5-3-55555555555555558888888888888888-)
D(---------------------------------------)
Tap to rate this tab
 
# A B C D E F G H I J K L M N O P Q R S T U V W X Y Z