Song name
# A B C D E F G H I J K L M N O P Q R S T U V W X Y Z

Endo - Simple Lies tab

Artist: Endo
Title: Simple lies
Album: Soundtrack Daredevil
tunning: droped D

Intro/Verse:
E---------------------------------------------------------
B---------------------------------------------------------
G---------------------------------------------------------
D-3--3--3--3-2----2--2--2-------5--5--5--5-3----3--3--2---
A---------------------------------------------------------
D--0--0--0------0--0--0--0-------0--0--0------0--0--0--0--

Pre-Chorus:
E-----------------------------------------------------
B-----------------------------------------------------
G-----------------------------------------------------
D-----------------------------------------------------
A-3-3-3-3-3-3-3-3-3-3-3-3-3-3-3-3-3-3-3-3-3-3-3-3-3-3-
D-----------------------------------------------------


Chorus:  D5,F5,C5,A#5,G5
E--------------------------------------------------
B--------------------------------------------------
G--------------------------------------------------
D-0...----(12)----3...----10...----8...----5...----
A-0...-or-(12)----3...----10...----8...----5...----
D-0...----(12)----3...----10...----8...----5...----


Jest to moja pierwsza tabulatura, wiec jestem przygotowany na wszelkie
komentarze:).  mail: chojny@interia.pl
Tap to rate this tab
# A B C D E F G H I J K L M N O P Q R S T U V W X Y Z