Song name
# A B C D E F G H I J K L M N O P Q R S T U V W X Y Z

Endstille - Depressive Abstract Banished Despised tab

Tuning: D-Standard, Playstyle: downstrokes

Riff 1:

|---------------|---------------| 
|---------------|---------------|
|---------------|---------------|
|---------------|---------------|
|2-2-2-2-2-2-3-3|2-2-2-2-2-2-5-5|
|0-0-0-0-0-0-1-1|0-0-0-0-0-0-0-0| *Intro: after repetion: 0/5 - rest


Riff 2:

|---------------|---------------|
|---------------|---------------|
|---------------|---------------|
|---------------|---------------|
|7-7-7-7-7-7-8-8|7-7-7-7-7-7-3-3|
|5-5-5-5-5-5-6-6|5-5-5-5-5-5-1-1|


Riff 3:

|---------------|---------------|
|---------------|---------------|
|---------------|---------------|
|---------------|---------------|
|6---6-7---6----|3-3-3--2--3----|
|4---4-5---4----|1-1-1--0--1----| *Listen to the Song to ge the timing right


Riff 4:

|---------------|----------------|---------------|
|---------------|----------------|---------------|
|---------------|----------------|---------------|
|---------------|----------------|3-3-3-3-3-3-3-3|
|----2-2-2-2-2-2|-----2-2-2-2-2-2|3-3-3-3-3-3-3-3|
|2~~~0-0-0-0-0-0|2~~~~0-0-0-0-0-0|1-1-1-1-1-1-1-1| *could also be 1/1/3

done by ear. have fun!
Tap to rate this tab
# A B C D E F G H I J K L M N O P Q R S T U V W X Y Z