Song name
# A B C D E F G H I J K L M N O P Q R S T U V W X Y Z

Endstille - I Bless You God tab

|------------------------------------------------------------------------|
|------------------------------------------------------------------------|
|------------------------------------------------------------------------|
|-5-5-5-5-5-5-5-5----------------------5-5-5-5-5-5-5-5-------------------|
|-2-2-2-2-2-2-2-2-8-8-10-10-11-11-10-8-2-2-2-2-2-2-2-2-0-0-3-3-4-4-3-0---|
|-0-0-0-0-0-0-0-0-8-8--8--8--8--8--8-8-0-0-0-0-0-0-0-0-1-1-1-1-1-1-1-1---|


|------------------------------------|
|------------------------------------|
|---------3-3------------------------|
|-2-2-2-2-3-3-3-3-2-2-2-2------------|
|-2-2-2-2-1-1-3-3-2-2-2-2-2-2-3-3----|
|-0-0-0-0-1-1-1-1-0-0-0-0-4-4-3-3----|


|-------------------|
|-------------------|
|----12-13----------|
|-10-------11-10----|
|-------------------|
|-------------------|


|------------------------------------|
|------------------------------------|
|------------------------------------|
|-4-2-2-2-4-2-2-2-4-2-2-2------------|
|-3-2-2-2-3-2-2-2-3-2-2-2-0-2-1-1----|
|---0-0-0---0-0-0---0-0-0-3-3-3-3----|


|------------------------------------|
|------------------------------------|
|------------------------------------|
|-1-1-1-1-1-1-1-1-2-2-0-0-3-3-2-2----|
|-3-3-3-3-3-3-3-3-4-4-4-4-4-4-4-4----|
|------------------------------------|
Tap to rate this tab
 
# A B C D E F G H I J K L M N O P Q R S T U V W X Y Z