Song name
# A B C D E F G H I J K L M N O P Q R S T U V W X Y Z

Endstille - Trenchgoat tab

|------------------------------------|
|------------------------------------|
|-----------------------------5------|
|-------------------5---5---4---4----|
|-2-2-2-2-2-3-2-2-4---4---3----------|
|-0-0-0-0-0-0-0-0--------------------|


|--------------------------------------------------------------------|
|--------------------------------------------------------------------|
|-5-5-5-5-5-5-5-5-7-7-7-7-4-4-4-4-5-5-5-5-5-5-5-5--------------------|
|-2-2-2-2-2-2-2-2-3-3-3-3-3-3-3-3-2-2-2-2-2-2-2-2-5-5-5-5-5-5-5-5----|
|-------------------------------------------------2-2-2-2-3-3-3-3----|
|--------------------------------------------------------------------|


|------------------------------------------------------------------------|
|------------------------------------------------------------------------|
|-0-0-0-0-0-0-0-0-0-0-0-0-0-0-0-0-0-0-0-0-0-0-0-0--0--0--0--0-0-0-0-0----|
|-9-9-9-9-9-9-9-9-5-5-5-5-5-5-5-5-9-9-9-9-9-9-9-9-10-10-10-10-7-7-7-7----|
|-7-7-7-7-7-7-7-7-3-3-3-3-3-3-3-3-7-7-7-7-7-7-7-7--8--8--8--8-5-5-5-5----|
|-0-0-0-0-0-0-0-0-0-0-0-0-0-0-0-0-0-0-0-0-0-0-0-0--0--0--0--0-0-0-0-0----|


|-----------------|-----------------|-----------------|---------------------|
|-----------------|-----------------|-----------------|---------------------|
|-0-0-0-0-0-0-0-0-|-0-0-0-0-0-0-0-0-|-0-0-0-0-0-0-0-0-|-0-0-0-0--0--0--0--0-|
|-9-9-9-9-9-9-9-9-|-5-5-5-5-5-5-5-5-|-9-9-9-9-9-9-9-9-|-7-7-7-7-10-10-10-10-|
|-7-7-7-7-7-7-7-7-|-3-3-3-3-3-3-3-3-|-7-7-7-7-7-7-7-7-|-5-5-5-5--8--8--8--8-|
|-0-0-0-0-0-0-0-0-|-0-0-0-0-0-0-0-0-|-0-0-0-0-0-0-0-0-|-0-0-0-0--0--0--0--0-|
Tap to rate this tab
# A B C D E F G H I J K L M N O P Q R S T U V W X Y Z