Song name
# A B C D E F G H I J K L M N O P Q R S T U V W X Y Z

Endwell - Drowning In Thoughts Of You tab

Help us improve GuitareTab! Take a short survey!
First Tab Hope you like it. By Greg Smith :P

D|-------------------------------------------|--------------------------|
A|-------------------------------------------|--------------------------|
F|-------------------------------------------|--------------------------|
C|-X-10-10-8-8-10-10-8-8---5-5-3-3-5-5-3-3---|--X-10-10-8-8-10-10-8-8---|
G|-X-8--8--8-8-8--8--8-8---3-3-3-3-3-3-3-3---|--X-8--8--8-8-8--8--8-8---|
C|-X-8--8--8-8-8--8--8-8---3-3-3-3-3-3-3-3---|--X-8--8--8-8-8--8--8-8---|
                      X2                                X1

Continued
--------------|
--------------|
--------------|
12-12-10-10---|
10-10-10-10---|
10-10-10-10---|
                Pick Scratch...
Related for Drowning In Thoughts Of You tab