Guitaretab - guitar tabs
Song name
# A B C D E F G H I J K L M N O P Q R S T U V W X Y Z

Endwell - Zombies Never Think Twice tab

Tuning is Drop Db
(Db, Ab, Db, Gb, Bb, Eb)

Intro
Eb -----------------------|
Bb -----------------------|
Gb -3-----7--5------------|
Db -3--3--7--5--5--3------|
Ab -1--3--5--3--5--3------|
Db ----3--------5--3------|

Eb --------------------------------------------------|
Bb --------------------------------------------------|
Gb --------------------------------------------------|
Db 0000--0000--00--0000--0000--0--0000--0000--00-----|
Ab 0000--0000--00--0000--0000--0--0000--0000--00-----|
Db 0000--0000--00--0000--0000--0--0000--0000--00-----|
      *****   ******   **    ******   *****    *    ******   *****    **(P.M.)

Eb -----------------------|
Bb -----------------------|
Gb -3-----7--5------------|
Db -3--3--7--5--5--3------|
Ab -1--3--5--3--5--3------|
Db ----3--------5--3------|

Eb --------------------------------------------------|
Bb --------------------------------------------------|
Gb --------------------------------------------------|
Db 0000--0000--00--0000--0000--0--0000--0000--00-----|
Ab 0000--0000--00--0000--0000--0--0000--0000--00-----|
Db 0000--0000--00--0000--0000--0--0000--0000--00-----|
      *****   ******   **    ******   *****    *    ******   *****    **(P.M.)

Eb -----------------------|
Bb -----------------------|
Gb -3-----7--5------------|
Db -3--3--7--5--5--3------|
Ab -1--3--5--3--5--3------|
Db ----3--------5--3------|

(Pre Verse)
Eb------------------------|
Bb------------------------|
Gb -10~~/14-14--12~~------|
Db - x--/  x--x---x-------|
Ab - 8~~/ 12-12--10~~-----|
Db -----------------------|

Eb ----------------------------------|
Bb ----------------------------------|
Gb ----------------------------------|
Db 0000--0000--0-0-0--0000--0000-0---|
Ab 0000--0000--0-0-0--0000--0000-0---|
Db 0000--0000--0-0-0--0000--0000-0---|
      *****    *****    *  *  *    *****     *****  * (P.M.)

Eb -----------------------|
Bb -----------------------|
Gb -3-----7--5------------|
Db -3--3--7--5--5--3------|
Ab -1--3--5--3--5--3------|
Db ----3--------5--3------|

Eb------------------------|
Bb------------------------|
Gb------------------------|
Db 0~~~~~~~~~/
Ab 0~~~~~~~~~/ Pick Scrap
Db 0~~~~~~~~~/

Verse
Eb----------------------------------|
Bb----------------------------------|
Gb----77---------------55-----77----|
Db-00-77--55--33--22--55--55-77-----|     (x4)
Ab  00-55--55--33--33--33--55-55----|
Db  00-----55--33--22------55-------|

Eb------------------------|
Bb------------------------|
Gb -10~~/14-14--12~~------|
Db - x--/  x--x---x-------|
Ab - 8~~/ 12-12--10~~-----|
Db -----------------------|

Chorus
Eb----------------------------------|
Bb----------------------------------|
Gb --7-5/7-----------------333333---|
Db 0-7-5/7-333333-555555--333333----|    (x4)
Ab 0-5-3/5-333333-555555--111111----|
Db 0-------333333-555555------------|
[ Tab from: http://www.guitaretab.com/e/endwell/82030.html ]
After 4th Time....
Db-7~~~~~~~~~~~/
Ab-7~~~~~~~~~~~/ Pick Scrap
Db-7~~~~~~~~~~~/

Back to Verse(x4)
Then Pre-Verse/Chorus
Then Chorus (x4)

After Chorus 4th time play
Eb-----------------------|
Bb-----------------------|
Gb-7777 7777 777 5~~~~~~~~
Db-7777 7777 777 5~~~~~~~~
Ab-5555 5555 555 3~~~~~~~~
Db------------------------

Eb----------|
Bb----------|
Gb7~~5~~7~~
Db7~~5~~7~~
Ab5~~3~~5~~
Db----------

Eb -----------------------|
Bb -----------------------|
Gb -3-----7--5------------|
Db -3--3--7--5--5--3------|
Ab -1--3--5--3--5--3------|
Db ----3--------5--3------|

Eb------------------------------------------------------------|
Bb------------------------------------------------------------|
Gb-7777 7777 777 5~~3333 3333 333 5~~7777 7777 777 5~~3333 3333 33
Db-7777 7777 777 5~~3333 3333 333 5~~7777 7777 777 5~~3333 3333 33
Ab-5555 5555 555 3~~1111 1111 111 3~~5555 5555 555 3~~1111 1111 11
Db------------------------------------------------------------

Eb -----------------------|
Bb -----------------------|
Gb -3-----7--5------------|
Db -3--3--7--5--5--3------|
Ab -1--3--5--3--5--3------|
Db ----3--------5--3------|

Eb ----------------------------------|
Bb ----------------------------------|
Gb ----------------------------------|
Db 0000--0000-0-0-0-0--0000--0000-0--|
Ab 0000--0000-0-0-0-0--0000--0000-0--|
Db 0000--0000-0-0-0-0--0000--0000-0--|
      *****    *****  *  *  *  *    *****     *****  * (P.M.)

Eb -----------------------|
Bb -----------------------|
Gb -3-----7--5------------|
Db -3--3--7--5--5--3------|
Ab -1--3--5--3--5--3------|
Db ----3--------5--3------|

Eb ----------------------------------|
Bb ----------------------------------|
Gb ----------------------------------|
Db 0000--0000--0-0-0--0000--0000-0---|
Ab 0000--0000--0-0-0--0000--0000-0---|
Db 0000--0000--0-0-0--0000--0000-0---|
      *****    *****    *  *  *    *****     *****  * (P.M.)

Eb -----------------------|
Bb -----------------------|
Gb -3-----7--5------------|
Db -3--3--7--5--5--3------|
Ab -1--3--5--3--5--3------|
Db ----3--------5--3------|


Eb --------------------------------------------------|
Bb --------------------------------------------------|
Gb --------------------------------------------------|
Db 0000--0000--00--0000--0000--0--0000--0000--00-----|
Ab 0000--0000--00--0000--0000--0--0000--0000--00-----|
Db 0000--0000--00--0000--0000--0--0000--0000--00-----|
      *****   ******   **    ******   *****    *    ******   *****    **(P.M.)

Eb ---------------------------------------------------|
Bb -----------(4*)------------------------------------|
Gb ---------------------------------------------------|
Db 0000--0000--00--0000--0000--0--0000--0000--00------|
Ab 0000--0000--00--0000--0000--0--0000--0000--00------|
Db 0000--0000--00--0000--0000--0--0000--0000--00------|
      *****   ******   **    ******   *****    *    ******   *****    **(P.M.)
Related for Zombies Never Think Twice tab
×
Zombies Never Think Twice